  0
SECTION
  2
HEADER
  9
$ACADVER
  1
AC1021
  9
$ACADMAINTVER
 70
    50
  9
$DWGCODEPAGE
  3
ANSI_1252
  9
$TITLE
  1
PBS-6 STRAIGHT BENCH ASSEMBLY
  9
$AUTHOR
  1
DRESENER
  9
$LASTSAVEDBY
  1
Derrick Resener
  9
$REVISIONNUMBER
  1
NEW
  9
$CUSTOMPROPERTYTAG
  1
Manager
  9
$CUSTOMPROPERTY
  1

  9
$CUSTOMPROPERTYTAG
  1
Company
  9
$CUSTOMPROPERTY
  1

  9
$CUSTOMPROPERTYTAG
  1
Category
  9
$CUSTOMPROPERTY
  1

  9
$CUSTOMPROPERTYTAG
  1
Part Number
  9
$CUSTOMPROPERTY
  1
PBS-6
  9
$CUSTOMPROPERTYTAG
  1
Description
  9
$CUSTOMPROPERTY
  1
PBS-6 STRAIGHT BENCH ASSEMBLY
  9
$CUSTOMPROPERTYTAG
  1
Project
  9
$CUSTOMPROPERTY
  1

  9
$CUSTOMPROPERTYTAG
  1
Designer
  9
$CUSTOMPROPERTY
  1
DRESENER
  9
$CUSTOMPROPERTYTAG
  1
Engineer
  9
$CUSTOMPROPERTY
  1

  9
$CUSTOMPROPERTYTAG
  1
Authority
  9
$CUSTOMPROPERTY
  1

  9
$CUSTOMPROPERTYTAG
  1
Cost Center
  9
$CUSTOMPROPERTY
  1

  9
$CUSTOMPROPERTYTAG
  1
Vendor
  9
$CUSTOMPROPERTY
  1

  9
$CUSTOMPROPERTYTAG
  1
User Status
  9
$CUSTOMPROPERTY
  1

  9
$CUSTOMPROPERTYTAG
  1
Design Status
  9
$CUSTOMPROPERTY
  1
WorkInProgress
  9
$CUSTOMPROPERTYTAG
  1
Checked by
  9
$CUSTOMPROPERTY
  1

  9
$CUSTOMPROPERTYTAG
  1
Engr Approved by
  9
$CUSTOMPROPERTY
  1

  9
$CUSTOMPROPERTYTAG
  1
Mfg Approved by
  9
$CUSTOMPROPERTY
  1

  9
$INSBASE
 10
0.0
 20
0.0
 30
0.0
  9
$EXTMIN
 10
9.491458481022156
 20
19.84709953362772
 30
-0.0015258207003583
  9
$EXTMAX
 10
120.7448733411087
 20
86.00335715245842
 30
0.0000000349246037
  9
$LIMMIN
 10
0.0
 20
0.0
  9
$LIMMAX
 10
132.0
 20
102.0
  9
$ORTHOMODE
 70
     1
  9
$REGENMODE
 70
     1
  9
$FILLMODE
 70
     1
  9
$QTEXTMODE
 70
     0
  9
$MIRRTEXT
 70
     0
  9
$LTSCALE
 40
6.0
  9
$ATTMODE
 70
     1
  9
$TEXTSIZE
 40
0.2
  9
$TRACEWID
 40
0.05
  9
$TEXTSTYLE
  7
Standard
  9
$CLAYER
  8
0
  9
$CELTYPE
  6
ByLayer
  9
$CECOLOR
 62
   256
  9
$CELTSCALE
 40
1.0
  9
$DISPSILH
 70
     0
  9
$DIMSCALE
 40
1.0
  9
$DIMASZ
 40
0.12
  9
$DIMEXO
 40
0.05
  9
$DIMDLI
 40
0.5
  9
$DIMRND
 40
0.0
  9
$DIMDLE
 40
0.0
  9
$DIMEXE
 40
0.1
  9
$DIMTP
 40
0.1
  9
$DIMTM
 40
0.1
  9
$DIMTXT
 40
0.12
  9
$DIMCEN
 40
0.0
  9
$DIMTSZ
 40
0.0
  9
$DIMTOL
 70
     0
  9
$DIMLIM
 70
     0
  9
$DIMTIH
 70
     1
  9
$DIMTOH
 70
     1
  9
$DIMSE1
 70
     0
  9
$DIMSE2
 70
     0
  9
$DIMTAD
 70
     0
  9
$DIMZIN
 70
     7
  9
$DIMBLK
  1

  9
$DIMASO
 70
     1
  9
$DIMSHO
 70
     1
  9
$DIMPOST
  1

  9
$DIMAPOST
  1
mm
  9
$DIMALT
 70
     0
  9
$DIMALTD
 70
     2
  9
$DIMALTF
 40
25.4
  9
$DIMLFAC
 40
1.0
  9
$DIMTOFL
 70
     0
  9
$DIMTVP
 40
0.0
  9
$DIMTIX
 70
     0
  9
$DIMSOXD
 70
     0
  9
$DIMSAH
 70
     0
  9
$DIMBLK1
  1

  9
$DIMBLK2
  1

  9
$DIMSTYLE
  2
AM_ANSI
  9
$DIMCLRD
 70
   256
  9
$DIMCLRE
 70
   256
  9
$DIMCLRT
 70
     2
  9
$DIMTFAC
 40
0.71
  9
$DIMGAP
 40
0.06
  9
$DIMJUST
 70
     0
  9
$DIMSD1
 70
     0
  9
$DIMSD2
 70
     0
  9
$DIMTOLJ
 70
     1
  9
$DIMTZIN
 70
     7
  9
$DIMALTZ
 70
     0
  9
$DIMALTTZ
 70
     0
  9
$DIMUPT
 70
     0
  9
$DIMDEC
 70
     4
  9
$DIMTDEC
 70
     4
  9
$DIMALTU
 70
     2
  9
$DIMALTTD
 70
     4
  9
$DIMTXSTY
  7
Standard
  9
$DIMAUNIT
 70
     0
  9
$DIMADEC
 70
     0
  9
$DIMALTRND
 40
0.0
  9
$DIMAZIN
 70
     2
  9
$DIMDSEP
 70
    46
  9
$DIMATFIT
 70
     3
  9
$DIMFRAC
 70
     0
  9
$DIMLDRBLK
  1

  9
$DIMLUNIT
 70
     2
  9
$DIMLWD
 70
    -1
  9
$DIMLWE
 70
    -1
  9
$DIMTMOVE
 70
     0
  9
$DIMFXL
 40
1.0
  9
$DIMFXLON
 70
     0
  9
$DIMJOGANG
 40
0.7853981633974483
  9
$DIMTFILL
 70
     0
  9
$DIMTFILLCLR
 70
     0
  9
$DIMARCSYM
 70
     1
  9
$DIMLTYPE
  6
ByBlock
  9
$DIMLTEX1
  6
ByBlock
  9
$DIMLTEX2
  6
ByBlock
  9
$LUNITS
 70
     2
  9
$LUPREC
 70
     4
  9
$SKETCHINC
 40
0.1
  9
$FILLETRAD
 40
0.0
  9
$AUNITS
 70
     0
  9
$AUPREC
 70
     0
  9
$MENU
  1
.
  9
$ELEVATION
 40
0.0
  9
$PELEVATION
 40
0.0
  9
$THICKNESS
 40
0.0
  9
$LIMCHECK
 70
     0
  9
$CHAMFERA
 40
0.0
  9
$CHAMFERB
 40
0.0
  9
$CHAMFERC
 40
0.0
  9
$CHAMFERD
 40
0.0
  9
$SKPOLY
 70
     0
  9
$TDCREATE
 40
2454836.622946759
  9
$TDUCREATE
 40
2454836.956280093
  9
$TDUPDATE
 40
2454836.625336771
  9
$TDUUPDATE
 40
2454836.958670104
  9
$TDINDWG
 40
0.0017454051
  9
$TDUSRTIMER
 40
0.0017453588
  9
$USRTIMER
 70
     1
  9
$ANGBASE
 50
0.0
  9
$ANGDIR
 70
     0
  9
$PDMODE
 70
     0
  9
$PDSIZE
 40
0.0
  9
$PLINEWID
 40
0.0
  9
$SPLFRAME
 70
     0
  9
$SPLINETYPE
 70
     6
  9
$SPLINESEGS
 70
     8
  9
$HANDSEED
  5
C25
  9
$SURFTAB1
 70
     6
  9
$SURFTAB2
 70
     6
  9
$SURFTYPE
 70
     6
  9
$SURFU
 70
     6
  9
$SURFV
 70
     6
  9
$UCSBASE
  2

  9
$UCSNAME
  2

  9
$UCSORG
 10
0.0
 20
0.0
 30
0.0
  9
$UCSXDIR
 10
1.0
 20
0.0
 30
0.0
  9
$UCSYDIR
 10
0.0
 20
1.0
 30
0.0
  9
$UCSORTHOREF
  2

  9
$UCSORTHOVIEW
 70
     0
  9
$UCSORGTOP
 10
0.0
 20
0.0
 30
0.0
  9
$UCSORGBOTTOM
 10
0.0
 20
0.0
 30
0.0
  9
$UCSORGLEFT
 10
0.0
 20
0.0
 30
0.0
  9
$UCSORGRIGHT
 10
0.0
 20
0.0
 30
0.0
  9
$UCSORGFRONT
 10
0.0
 20
0.0
 30
0.0
  9
$UCSORGBACK
 10
0.0
 20
0.0
 30
0.0
  9
$PUCSBASE
  2

  9
$PUCSNAME
  2

  9
$PUCSORG
 10
0.0
 20
0.0
 30
0.0
  9
$PUCSXDIR
 10
1.0
 20
0.0
 30
0.0
  9
$PUCSYDIR
 10
0.0
 20
1.0
 30
0.0
  9
$PUCSORTHOREF
  2

  9
$PUCSORTHOVIEW
 70
     0
  9
$PUCSORGTOP
 10
0.0
 20
0.0
 30
0.0
  9
$PUCSORGBOTTOM
 10
0.0
 20
0.0
 30
0.0
  9
$PUCSORGLEFT
 10
0.0
 20
0.0
 30
0.0
  9
$PUCSORGRIGHT
 10
0.0
 20
0.0
 30
0.0
  9
$PUCSORGFRONT
 10
0.0
 20
0.0
 30
0.0
  9
$PUCSORGBACK
 10
0.0
 20
0.0
 30
0.0
  9
$USERI1
 70
     0
  9
$USERI2
 70
     0
  9
$USERI3
 70
     0
  9
$USERI4
 70
     0
  9
$USERI5
 70
     0
  9
$USERR1
 40
0.0
  9
$USERR2
 40
0.0
  9
$USERR3
 40
0.0
  9
$USERR4
 40
0.0
  9
$USERR5
 40
0.0
  9
$WORLDVIEW
 70
     1
  9
$SHADEDGE
 70
     3
  9
$SHADEDIF
 70
    70
  9
$TILEMODE
 70
     1
  9
$MAXACTVP
 70
    64
  9
$PINSBASE
 10
0.0
 20
0.0
 30
0.0
  9
$PLIMCHECK
 70
     0
  9
$PEXTMIN
 10
0.0
 20
0.0
 30
0.0
  9
$PEXTMAX
 10
132.0
 20
102.0
 30
0.0
  9
$PLIMMIN
 10
0.0
 20
0.0
  9
$PLIMMAX
 10
132.0
 20
102.0
  9
$UNITMODE
 70
     0
  9
$VISRETAIN
 70
     1
  9
$PLINEGEN
 70
     0
  9
$PSLTSCALE
 70
     1
  9
$TREEDEPTH
 70
  3020
  9
$CMLSTYLE
  2
Standard
  9
$CMLJUST
 70
     0
  9
$CMLSCALE
 40
1.0
  9
$PROXYGRAPHICS
 70
     1
  9
$MEASUREMENT
 70
     0
  9
$CELWEIGHT
370
    -1
  9
$ENDCAPS
280
     0
  9
$JOINSTYLE
280
     0
  9
$LWDISPLAY
290
     0
  9
$INSUNITS
 70
     1
  9
$HYPERLINKBASE
  1

  9
$STYLESHEET
  1

  9
$XEDIT
290
     1
  9
$CEPSNTYPE
380
     0
  9
$PSTYLEMODE
290
     1
  9
$FINGERPRINTGUID
  2
{19C09074-A6DD-47ED-BA26-78CF5790CBCA}
  9
$VERSIONGUID
  2
{B1D90A60-5564-492D-A502-28CC662A0F6A}
  9
$EXTNAMES
290
     1
  9
$PSVPSCALE
 40
0.0
  9
$OLESTARTUP
290
     0
  9
$SORTENTS
280
   127
  9
$INDEXCTL
280
     0
  9
$HIDETEXT
280
     1
  9
$XCLIPFRAME
290
     0
  9
$HALOGAP
280
     0
  9
$OBSCOLOR
 70
   257
  9
$OBSLTYPE
280
     0
  9
$INTERSECTIONDISPLAY
280
     0
  9
$INTERSECTIONCOLOR
 70
   257
  9
$DIMASSOC
280
     1
  9
$PROJECTNAME
  1

  9
$CAMERADISPLAY
290
     0
  9
$LENSLENGTH
 40
50.0
  9
$CAMERAHEIGHT
 40
0.0
  9
$STEPSPERSEC
 40
2.0
  9
$STEPSIZE
 40
6.0
  9
$3DDWFPREC
 40
2.0
  9
$PSOLWIDTH
 40
0.25
  9
$PSOLHEIGHT
 40
4.0
  9
$LOFTANG1
 40
1.570796326794896
  9
$LOFTANG2
 40
1.570796326794896
  9
$LOFTMAG1
 40
0.0
  9
$LOFTMAG2
 40
0.0
  9
$LOFTPARAM
 70
     7
  9
$LOFTNORMALS
280
     1
  9
$LATITUDE
 40
37.795
  9
$LONGITUDE
 40
-122.394
  9
$NORTHDIRECTION
 40
0.0
  9
$TIMEZONE
 70
 -8000
  9
$LIGHTGLYPHDISPLAY
280
     1
  9
$TILEMODELIGHTSYNCH
280
     1
  9
$CMATERIAL
347
11
  9
$SOLIDHIST
280
     1
  9
$SHOWHIST
280
     1
  9
$DWFFRAME
280
     2
  9
$DGNFRAME
280
     0
  9
$REALWORLDSCALE
290
     1
  9
$INTERFERECOLOR
 62
     1
  9
$INTERFEREOBJVS
345
33
  9
$INTERFEREVPVS
346
30
  9
$CSHADOW
280
     0
  9
$SHADOWPLANELOCATION
 40
0.0
  0
ENDSEC
  0
SECTION
  2
CLASSES
  0
CLASS
  1
ACDBDICTIONARYWDFLT
  2
AcDbDictionaryWithDefault
  3
ObjectDBX Classes
 90
        0
 91
        1
280
     0
281
     0
  0
CLASS
  1
MATERIAL
  2
AcDbMaterial
  3
ObjectDBX Classes
 90
     1153
 91
        3
280
     0
281
     0
  0
CLASS
  1
VISUALSTYLE
  2
AcDbVisualStyle
  3
ObjectDBX Classes
 90
     4095
 91
       16
280
     0
281
     0
  0
CLASS
  1
SCALE
  2
AcDbScale
  3
ObjectDBX Classes
 90
     1153
 91
       33
280
     0
281
     0
  0
CLASS
  1
TABLESTYLE
  2
AcDbTableStyle
  3
ObjectDBX Classes
 90
     4095
 91
        1
280
     0
281
     0
  0
CLASS
  1
MLEADERSTYLE
  2
AcDbMLeaderStyle
  3
ACDB_MLEADERSTYLE_CLASS
 90
     4095
 91
        1
280
     0
281
     0
  0
CLASS
  1
DICTIONARYVAR
  2
AcDbDictionaryVar
  3
ObjectDBX Classes
 90
        0
 91
        7
280
     0
281
     0
  0
CLASS
  1
CELLSTYLEMAP
  2
AcDbCellStyleMap
  3
ObjectDBX Classes
 90
     1152
 91
        2
280
     0
281
     0
  0
CLASS
  1
AMGSETTINGSOBJ
  2
AmgSettingsObj
  3
"AcadM|Product Description: AutoCAD Mechanical|Company: Autodesk, Inc."
 90
     1024
 91
        2
280
     0
281
     0
  0
CLASS
  1
ACME_DOCUMENT
  2
AcMeDbDoc
  3
AcMeServices
 90
     1024
 91
        1
280
     0
281
     0
  0
CLASS
  1
ACMESCOPE
  2
AcMeScope
  3
AcMeServices
 90
     1024
 91
        1
280
     0
281
     0
  0
CLASS
  1
ACMECOMMANDHISTORY
  2
AcMeCommandHistory
  3
AcMeServices
 90
     1024
 91
        1
280
     0
281
     0
  0
CLASS
  1
ACIMSYSVARMAN
  2
AcImSysVarManager
  3
AcMeServices
 90
     1024
 91
        5
280
     0
281
     0
  0
CLASS
  1
ACIMINTSYSVAR
  2
AcImIntSysVar
  3
AcMeServices
 90
     1024
 91
       27
280
     0
281
     0
  0
CLASS
  1
ACMEDRAWINGMAN
  2
AcMeDrawingMan
  3
AcMeServices
 90
     1024
 91
        1
280
     0
281
     0
  0
CLASS
  1
ACMEVIEW
  2
AcMeView
  3
AcMeServices
 90
     1024
 91
        1
280
     0
281
     0
  0
CLASS
  1
ACDBENTITYCACHE
  2
AcMeEntityCache
  3
AcMeServices
 90
     1024
 91
        1
280
     0
281
     0
  0
CLASS
  1
GSMANAGER
  2
AcMeGSManager
  3
AcMeServices
 90
     1024
 91
        1
280
     0
281
     0
  0
CLASS
  1
AMDTINTERNALREACTOR
  2
AmdtInternalReactor
  3
AcMeServices
 90
     1024
 91
        2
280
     0
281
     0
  0
CLASS
  1
ACMESTATEMGR
  2
AcMeStateMgr
  3
AcMeServices
 90
     1024
 91
        1
280
     0
281
     0
  0
CLASS
  1
ACGREFMASTER
  2
AcGrefMaster
  3
AcAttribServices
 90
     1024
 91
        1
280
     0
281
     0
  0
CLASS
  1
AM_DRAWING_MGR
  2
AcDmDwgMgr
  3
AcMechDwgViewMgmt
 90
     1024
 91
        1
280
     0
281
     0
  0
CLASS
  1
AM_DWG_DOCUMENT
  2
AcDmDwgDocument
  3
AcMechDwgViewMgmt
 90
     1024
 91
        1
280
     0
281
     0
  0
CLASS
  1
AM_DWG_SHEET
  2
AcDmSheet
  3
AcMechDwgViewMgmt
 90
     1024
 91
        2
280
     0
281
     0
  0
CLASS
  1
AM_VIEWDIMPARMAP
  2
AcDmViewDimParMap
  3
AcMechDwgViewMgmt
 90
     1024
 91
        2
280
     0
281
     0
  0
CLASS
  1
ACIMREALSYSVAR
  2
AcImRealSysVar
  3
AcMeServices
 90
     1024
 91
        1
280
     0
281
     0
  0
CLASS
  1
AM_DWGMGR_NAME
  2
AcDmDwgMgrName
  3
AcMechDwgViewMgmt
 90
     1024
 91
        1
280
     0
281
     0
  0
CLASS
  1
ACME_DATABASE
  2
AcMeDbDatabase
  3
AcMeServices
 90
     1024
 91
        1
280
     0
281
     0
  0
CLASS
  1
ACRFINSADJUSTERMGR
  2
AcRfInsAdjusterMgr
  3
AcMeServices
 90
     1024
 91
        1
280
     0
281
     0
  0
CLASS
  1
ACGREFACADMASTER
  2
AcGrefacadMaster
  3
AcGrefServices
 90
     1024
 91
        1
280
     0
281
     0
  0
CLASS
  1
AMDTMENUSTATEMGR
  2
AmdtMenuStateMgr
  3
McadcomServices
 90
     1024
 91
        1
280
     0
281
     0
  0
CLASS
  1
AMDTMCOMMENUSTATE
  2
AmdtMcomMenuState
  3
McadcomServices
 90
     1024
 91
        1
280
     0
281
     0
  0
CLASS
  1
AMIMASTER
  2
AmiMaster
  3
AmiServices
 90
     1024
 91
        1
280
     0
281
     0
  0
CLASS
  1
MAPIAMMOUDLE
  2
MApiAmModule
  3
MApiAmServices
 90
     1024
 91
        1
280
     0
281
     0
  0
CLASS
  1
ACIMSTRSYSVAR
  2
AcImStrSysVar
  3
AcMeServices
 90
     1024
 91
        5
280
     0
281
     0
  0
CLASS
  1
AMDTADMENUSTATE
  2
AmdtAdMenuState
  3
DesignerServices
 90
     1024
 91
        1
280
     0
281
     0
  0
CLASS
  1
ADAPPL
  2
AcAdAppl
  3
DesignerServices
 90
     1024
 91
        1
280
     0
281
     0
  0
CLASS
  1
DEPMGR
  2
AcAdDepMgr
  3
DesignerServices
 90
     1024
 91
        1
280
     0
281
     0
  0
CLASS
  1
PARAMMGR
  2
AcAdParamMgr
  3
DesignerServices
 90
     1024
 91
        1
280
     0
281
     0
  0
CLASS
  1
PARAMSCOPE
  2
AcAdParamScope
  3
DesignerServices
 90
     1024
 91
        1
280
     0
281
     0
  0
CLASS
  1
NAMEDAPPL
  2
AcAdNamedAppl
  3
DesignerServices
 90
     1024
 91
        1
280
     0
281
     0
  0
CLASS
  1
AMDTDMMENUSTATE
  2
AmdtDmMenuState
  3
AcMechDwgViewMgmt
 90
     1024
 91
        1
280
     0
281
     0
  0
CLASS
  1
AMDTAMMENUSTATE
  2
AmdtAmMenuState
  3
DesignerAssemblies
 90
     1024
 91
        1
280
     0
281
     0
  0
CLASS
  1
ACAMPROJECT
  2
AcAmProject
  3
DesignerAssemblies
 90
     1024
 91
        1
280
     0
281
     0
  0
CLASS
  1
ACAMGRCOMPDEF
  2
AcAmGrCompDef
  3
DesignerAssemblies
 90
     1024
 91
        1
280
     0
281
     0
  0
CLASS
  1
ACCMCONTEXT
  2
AcCmContext
  3
DesignerAssemblies
 90
     1024
 91
        1
280
     0
281
     0
  0
CLASS
  1
ACAMCOMPDEF
  2
AcAmCompDef
  3
DesignerAssemblies
 90
     1024
 91
        1
280
     0
281
     0
  0
CLASS
  1
ACAMCOMPDEFMGR
  2
AcAmCompDefMgr
  3
DesignerAssemblies
 90
     1024
 91
        1
280
     0
281
     0
  0
CLASS
  1
AMCONTEXTMGR
  2
AcAmContextMgr
  3
DesignerAssemblies
 90
     1024
 91
        1
280
     0
281
     0
  0
CLASS
  1
ACAMCONTEXTMODELER
  2
AcAmContextModeler
  3
DesignerAssemblies
 90
     1024
 91
        1
280
     0
281
     0
  0
CLASS
  1
ACMDATADICTIONARY
  2
AcmDataDictionary
  3
"AcmSymBB|Product Description: AutoCAD Mechanical|Company: Autodesk, Inc."
 90
     1024
 91
        1
280
     0
281
     0
  0
CLASS
  1
CATALOGSTATE
  2
AcAmCatalogState
  3
DesignerAssemblies
 90
     1024
 91
        1
280
     0
281
     0
  0
CLASS
  1
ACAMGRCOMPDEFSET
  2
AcAmGrCompDefSet
  3
DesignerAssemblies
 90
     1024
 91
        1
280
     0
281
     0
  0
CLASS
  1
AMDTBROWSERDBTAB
  2
AmdtBrowserDbTab
  3
McadcomServices
 90
     1024
 91
        1
280
     0
281
     0
  0
CLASS
  1
CBROWSERAPPOBJECT
  2
CBrowserAppObject
  3
McadcomServices
 90
     1024
 91
        3
280
     0
281
     0
  0
CLASS
  1
DM_PLACEHOLDER
  2
AcDmSelsetPlaceholder
  3
AcMechDwgViewMgmt
 90
     1024
 91
        1
280
     0
281
     0
  0
CLASS
  1
EXACXREFPANELOBJECT
  2
ExAcXREFPanelObject
  3
EXAC_ESW
 90
     1025
 91
        1
280
     0
281
     0
  0
CLASS
  1
NPOCOLLECTION
  2
AcDbImpNonPersistentObjectsCollection
  3
ObjectDBX Classes
 90
     1153
 91
        1
280
     0
281
     0
  0
CLASS
  1
ACMSTANDARDANSI
  2
AcmStandardANSI
  3
"Amdt_StdImp|Product Description: AutoCAD Mechanical|Company: Autodesk, Inc."
 90
     1024
 91
        1
280
     0
281
     0
  0
CLASS
  1
ACMSURFSTANDARDANSI
  2
AcmSurfTextStdANSI
  3
"Amdt_StdImp|Product Description: AutoCAD Mechanical|Company: Autodesk, Inc."
 90
     1024
 91
        1
280
     0
281
     0
  0
CLASS
  1
ACMFCFSTANDARDANSI
  2
AcmFCFStdANSI
  3
"Amdt_StdImp|Product Description: AutoCAD Mechanical|Company: Autodesk, Inc."
 90
     1024
 91
        1
280
     0
281
     0
  0
CLASS
  1
ACMWELDSTANDARDANSI
  2
AcmWeldingStdANSI
  3
"Amdt_StdImp|Product Description: AutoCAD Mechanical|Company: Autodesk, Inc."
 90
     1024
 91
        1
280
     0
281
     0
  0
CLASS
  1
ACMIDSTANDARDANSI
  2
AcmIdStdANSI
  3
"Amdt_StdImp|Product Description: AutoCAD Mechanical|Company: Autodesk, Inc."
 90
     1024
 91
        1
280
     0
281
     0
  0
CLASS
  1
ACMDATUMSTANDARDANSI
  2
AcmDatumStdANSI
  3
"Amdt_StdImp|Product Description: AutoCAD Mechanical|Company: Autodesk, Inc."
 90
     1024
 91
        1
280
     0
281
     0
  0
CLASS
  1
ACMBOMSTANDARDANSI
  2
AcmBOMStdANSI
  3
"Amdt_StdImp|Product Description: AutoCAD Mechanical|Company: Autodesk, Inc."
 90
     1024
 91
        1
280
     0
281
     0
  0
CLASS
  1
ACMDETAILSTANDARDANSI
  2
AmdtDetailSymStdANSI
  3
"Amdt_StdImp|Product Description: AutoCAD Mechanical|Company: Autodesk, Inc."
 90
     1024
 91
        1
280
     0
281
     0
  0
CLASS
  1
ACMSECTIONSTANDARDANSI
  2
AmdtSectionSymStdANSI
  3
"Amdt_StdImp|Product Description: AutoCAD Mechanical|Company: Autodesk, Inc."
 90
     1024
 91
        1
280
     0
281
     0
  0
CLASS
  1
ACMCENTERLINESTANDARDANSI
  2
AmdtCenterLineStdANSI
  3
"Amdt_StdImp|Product Description: AutoCAD Mechanical|Company: Autodesk, Inc."
 90
     1024
 91
        1
280
     0
281
     0
  0
CLASS
  1
ACMTHREADLINESTANDARDANSI
  2
AmdtThreadLineStdANSI
  3
"Amdt_StdImp|Product Description: AutoCAD Mechanical|Company: Autodesk, Inc."
 90
     1024
 91
        1
280
     0
281
     0
  0
CLASS
  1
ACMNOTESTANDARDANSI
  2
AmdtNoteStdANSI
  3
"Amdt_StdImp|Product Description: AutoCAD Mechanical|Company: Autodesk, Inc."
 90
     1024
 91
        1
280
     0
281
     0
  0
CLASS
  1
ACMTAPERSTANDARDANSI
  2
AcmTaperStdANSI
  3
"Amdt_StdImp|Product Description: AutoCAD Mechanical|Company: Autodesk, Inc."
 90
     1024
 91
        1
280
     0
281
     0
  0
CLASS
  1
ACMANOOTATIONVIEWSTANDARDANSI
  2
AmdtAnViewStdANSI
  3
"Amdt_StdImp|Product Description: AutoCAD Mechanical|Company: Autodesk, Inc."
 90
     1024
 91
        1
280
     0
281
     0
  0
CLASS
  1
ACAMGLAYSTD
  2
AcAmgLayStd
  3
"AmgLay|Product Description: AutoCAD Mechanical|Company: Autodesk, Inc."
 90
     1024
 91
        1
280
     0
281
     0
  0
CLASS
  1
ACAMGDIMSTD
  2
AcAmgDimStd
  3
"AmgDim|Product Description: AutoCAD Mechanical|Company: Autodesk, Inc."
 90
     1024
 91
        1
280
     0
281
     0
  0
CLASS
  1
AMGOBJPROPCFG
  2
AmgObjPropCfg
  3
"AmgLay|Product Description: AutoCAD Mechanical|Company: Autodesk, Inc."
 90
     1025
 91
        1
280
     0
281
     0
  0
CLASS
  1
ACAMGHOLECHARTSTDANSI
  2
AcAmgHoleChartStdANSI
  3
AmgDim|Product Description: AutoCAD Mechanical|Company: Autodesk, Inc.
 90
     1024
 91
        1
280
     0
281
     0
  0
CLASS
  1
ACAMGTITLESTD
  2
AcAmgTitleStd
  3
"AmgTitle|Product Description: AutoCAD Mechanical|Company: Autodesk, Inc."
 90
     4095
 91
        1
280
     0
281
     0
  0
CLASS
  1
AMDTNOTETEMPLATEDB
  2
AmdtNoteTemplateDB
  3
AcmSymBB|Product Description: AutoCAD Mechanical|Company: Autodesk, Inc.
 90
     1024
 91
        6
280
     0
281
     0
  0
CLASS
  1
ACAMGFILTERDAT
  2
AcAmgFilterDat
  3
"AcadM|Product Description: AutoCAD Mechanical|Company: Autodesk, Inc."
 90
     1024
 91
        6
280
     0
281
     0
  0
ENDSEC
  0
SECTION
  2
TABLES
  0
TABLE
  2
VPORT
  5
8
330
0
100
AcDbSymbolTable
 70
     1
  0
VPORT
  5
5F
330
8
100
AcDbSymbolTableRecord
100
AcDbViewportTableRecord
  2
*Active
 70
     0
 10
0.0
 20
0.0
 11
1.0
 21
1.0
 12
66.0
 22
51.0
 13
0.0
 23
0.0
 14
1.0
 24
1.0
 15
0.0
 25
0.0
 16
0.0
 26
0.0
 36
1.0
 17
0.0
 27
0.0
 37
0.0
 40
103.1167883211679
 41
2.159049360146252
 42
50.0
 43
0.0
 44
0.0
 50
0.0
 51
0.0
 71
     0
 72
   100
 73
     1
 74
     1
 75
     0
 76
     0
 77
     0
 78
     0
281
     0
 65
     0
110
0.0
120
0.0
130
0.0
111
1.0
121
0.0
131
0.0
112
0.0
122
1.0
132
0.0
 79
     0
146
0.0
348
2F
 60
     3
 61
     5
292
     1
282
     1
141
0.0
142
0.0
 63
   250
421
  3355443
  0
ENDTAB
  0
TABLE
  2
LTYPE
  5
5
330
0
100
AcDbSymbolTable
 70
    70
  0
LTYPE
  5
63
330
5
100
AcDbSymbolTableRecord
100
AcDbLinetypeTableRecord
  2
ByBlock
 70
     0
  3

 72
    65
 73
     0
 40
0.0
  0
LTYPE
  5
64
330
5
100
AcDbSymbolTableRecord
100
AcDbLinetypeTableRecord
  2
ByLayer
 70
     0
  3

 72
    65
 73
     0
 40
0.0
  0
LTYPE
  5
65
330
5
100
AcDbSymbolTableRecord
100
AcDbLinetypeTableRecord
  2
Continuous
 70
     0
  3
Solid line
 72
    65
 73
     0
 40
0.0
  0
LTYPE
  5
90
330
5
100
AcDbSymbolTableRecord
100
AcDbLinetypeTableRecord
  2
CENTER
 70
     0
  3
Center ____ _ ____ _ ____ _ ____ _ ____ _ ____
 72
    65
 73
     4
 40
2.0
 49
1.25
 74
     0
 49
-0.25
 74
     0
 49
0.25
 74
     0
 49
-0.25
 74
     0
  0
LTYPE
  5
91
330
5
100
AcDbSymbolTableRecord
100
AcDbLinetypeTableRecord
  2
CENTER2
 70
     0
  3
Center (.5x) ___ _ ___ _ ___ _ ___ _ ___ _ ___
 72
    65
 73
     4
 40
1.125
 49
0.75
 74
     0
 49
-0.125
 74
     0
 49
0.125
 74
     0
 49
-0.125
 74
     0
  0
LTYPE
  5
9E
330
5
100
AcDbSymbolTableRecord
100
AcDbLinetypeTableRecord
  2
HIDDEN
 70
     0
  3
Hidden __ __ __ __ __ __ __ __ __ __ __ __ __ _
 72
    65
 73
     2
 40
0.375
 49
0.25
 74
     0
 49
-0.125
 74
     0
  0
LTYPE
  5
9F
330
5
100
AcDbSymbolTableRecord
100
AcDbLinetypeTableRecord
  2
HIDDEN2
 70
     0
  3
Hidden (.5x) _ _ _ _ _ _ _ _ _ _ _ _ _ _ _ _ _
 72
    65
 73
     2
 40
0.1875
 49
0.125
 74
     0
 49
-0.0625
 74
     0
  0
LTYPE
  5
A2
330
5
100
AcDbSymbolTableRecord
100
AcDbLinetypeTableRecord
  2
PHANTOM2
 70
     0
  3
Phantom (.5x) ___ _ _ ___ _ _ ___ _ _ ___ _ _
 72
    65
 73
     6
 40
1.25
 49
0.625
 74
     0
 49
-0.125
 74
     0
 49
0.125
 74
     0
 49
-0.125
 74
     0
 49
0.125
 74
     0
 49
-0.125
 74
     0
  0
LTYPE
  5
B10
330
5
100
AcDbSymbolTableRecord
100
AcDbLinetypeTableRecord
  2
Amconstr
 70
     0
  3
_______________________
 72
    65
 73
     2
 40
9999.0
 49
9999.0
 74
     0
 49
0.0
 74
     0
  0
LTYPE
  5
B16
330
5
100
AcDbSymbolTableRecord
100
AcDbLinetypeTableRecord
  2
Amzigzag2
 70
     0
  3
/\/-/\/-/\/-/\/-/\/-/\/
 72
    65
 73
     2
 40
0.4401
 49
0.0001
 74
     4
 75
   136
340
B14
 46
0.0016
 50
0.0
 44
0.0
 45
0.0
 49
-0.4400000000000001
 74
     0
  0
LTYPE
  5
B24
330
5
100
AcDbSymbolTableRecord
100
AcDbLinetypeTableRecord
  2
ACANSTGB
 70
     0
  3
__ . . __ . .
 72
    65
 73
     6
 40
0.35433070866
 49
0.15748031496
 74
     0
 49
-0.03937007874
 74
     0
 49
0.03937007874
 74
     0
 49
-0.03937007874
 74
     0
 49
0.03937007874
 74
     0
 49
-0.03937007874
 74
     0
  0
LTYPE
  5
B25
330
5
100
AcDbSymbolTableRecord
100
AcDbLinetypeTableRecord
  2
ACANSTGL
 70
     0
  3
_ _ _ _ _
 72
    65
 73
     2
 40
0.11811023622
 49
0.07874015748
 74
     0
 49
-0.03937007874
 74
     0
  0
ENDTAB
  0
TABLE
  2
LAYER
  5
2
330
0
100
AcDbSymbolTable
 70
     9
  0
LAYER
  5
5C
330
2
100
AcDbSymbolTableRecord
100
AcDbLayerTableRecord
  2
0
 70
     0
 62
     7
  6
Continuous
370
    25
390
F
347
21
  0
LAYER
  5
CE
330
2
100
AcDbSymbolTableRecord
100
AcDbLayerTableRecord
  2
Visible (ANSI)
 70
     0
 62
     7
  6
Continuous
370
    50
390
F
347
21
  0
ENDTAB
  0
TABLE
  2
STYLE
  5
3
330
0
100
AcDbSymbolTable
 70
    18
  0
STYLE
  5
5D
330
3
100
AcDbSymbolTableRecord
100
AcDbTextStyleTableRecord
  2
Standard
 70
     0
 40
0.0
 41
1.0
 50
0.0
 71
     0
 42
0.2
  3
txt.shx
  4

  0
STYLE
  5
B14
330
3
100
AcDbSymbolTableRecord
100
AcDbTextStyleTableRecord
  2

 70
     1
 40
0.0
 41
1.0
 50
0.0
 71
     0
 42
0.2
  3
genltshp.shx
  4

  0
STYLE
  5
B23
330
3
100
AcDbSymbolTableRecord
100
AcDbTextStyleTableRecord
  2
ACANSGDT
 70
     0
 40
0.0
 41
1.0
 50
0.0
 71
     0
 42
0.2
  3
amgdt.shx
  4

  0
ENDTAB
  0
TABLE
  2
VIEW
  5
6
330
0
100
AcDbSymbolTable
 70
     0
  0
ENDTAB
  0
TABLE
  2
UCS
  5
7
330
0
100
AcDbSymbolTable
 70
     0
  0
ENDTAB
  0
TABLE
  2
APPID
  5
9
330
0
100
AcDbSymbolTable
 70
    14
  0
APPID
  5
5E
330
9
100
AcDbSymbolTableRecord
100
AcDbRegAppTableRecord
  2
ACAD
 70
     0
  0
APPID
  5
66
330
9
100
AcDbSymbolTableRecord
100
AcDbRegAppTableRecord
  2
AcadAnnotative
 70
     0
  0
APPID
  5
70
330
9
100
AcDbSymbolTableRecord
100
AcDbRegAppTableRecord
  2
ACAD_MLEADERVER
 70
     0
  0
APPID
  5
17C
330
9
100
AcDbSymbolTableRecord
100
AcDbRegAppTableRecord
  2
AcadAnnoPO
 70
     0
  0
APPID
  5
4A8
330
9
100
AcDbSymbolTableRecord
100
AcDbRegAppTableRecord
  2
ACAD_DSTYLE_DIMRADIAL_EXTENSION
 70
     0
  0
APPID
  5
98F
330
9
100
AcDbSymbolTableRecord
100
AcDbRegAppTableRecord
  2
ACAD_DSTYLE_DIMANGULAR_EXTENSION
 70
     0
  0
APPID
  5
A98
330
9
100
AcDbSymbolTableRecord
100
AcDbRegAppTableRecord
  2
MCAD_NO_VIS
 70
     0
  0
APPID
  5
A99
330
9
100
AcDbSymbolTableRecord
100
AcDbRegAppTableRecord
  2
ACAD_TEMP_GRAPHIC
 70
     0
  0
APPID
  5
AC8
330
9
100
AcDbSymbolTableRecord
100
AcDbRegAppTableRecord
  2
AD_DRAW
 70
     0
  0
APPID
  5
ACB
330
9
100
AcDbSymbolTableRecord
100
AcDbRegAppTableRecord
  2
ACATTRIBSERVICES
 70
     0
  0
APPID
  5
AEC
330
9
100
AcDbSymbolTableRecord
100
AcDbRegAppTableRecord
  2
DESIGNERASSEMBLIES
 70
     0
  0
APPID
  5
AF2
330
9
100
AcDbSymbolTableRecord
100
AcDbRegAppTableRecord
  2
ACADM_DIM_EDIT
 70
     0
  0
APPID
  5
AF3
330
9
100
AcDbSymbolTableRecord
100
AcDbRegAppTableRecord
  2
AMDT_DM_ADJ
 70
     0
  0
APPID
  5
C18
330
9
100
AcDbSymbolTableRecord
100
AcDbRegAppTableRecord
  2
ACAD_EXEMPT_FROM_CAD_STANDARDS
 70
     0
  0
ENDTAB
  0
TABLE
  2
DIMSTYLE
  5
A
330
0
100
AcDbSymbolTable
 70
    29
100
AcDbDimStyleTable
 71
     1
340
B0B
  0
DIMSTYLE
105
B0B
102
{ACAD_REACTORS
330
AFB
102
}
330
A
100
AcDbSymbolTableRecord
100
AcDbDimStyleTableRecord
  2
AM_ANSI
 70
     0
  4
mm
 41
0.12
 42
0.05
 43
0.5
 44
0.1
 47
0.1
 48
0.1
 78
     7
 79
     2
 90
     1
140
0.12
141
0.0
146
0.71
147
0.06
176
   256
177
   256
178
     2
274
     4
284
     7
340
5D
345
63
346
63
347
63
371
    -1
372
    -1
  0
DIMSTYLE
105
B17
330
A
100
AcDbSymbolTableRecord
100
AcDbDimStyleTableRecord
  2
AM_ANSI$3
 70
     0
  4
mm
 41
0.12
 42
0.05
 43
0.5
 44
0.1
 47
0.1
 48
0.1
 78
     7
 79
     2
 90
     1
140
0.12
141
0.0
146
0.71
147
0.06
176
   256
177
   256
178
     2
274
     4
284
     7
288
     1
289
     0
340
5D
345
63
346
63
347
63
371
    -1
372
    -1
  0
DIMSTYLE
105
B18
330
A
100
AcDbSymbolTableRecord
100
AcDbDimStyleTableRecord
  2
AM_ANSI$4
 70
     0
  4
mm
 41
0.12
 42
0.05
 43
0.5
 44
0.1
 47
0.1
 48
0.1
 78
     7
 79
     2
 90
     1
140
0.12
141
0.0
146
0.71
147
0.06
176
   256
177
   256
178
     2
274
     4
284
     7
340
5D
345
63
346
63
347
63
371
    -1
372
    -1
  0
DIMSTYLE
105
B19
330
A
100
AcDbSymbolTableRecord
100
AcDbDimStyleTableRecord
  2
AM_ANSI$7
 70
     0
  4
mm
 41
0.12
 42
0.05
 43
0.5
 44
0.1
 47
0.1
 48
0.1
 78
     7
 79
     2
 90
     1
140
0.12
141
0.0
146
0.71
147
0.06
176
   256
177
   256
178
     2
274
     4
284
     7
340
5D
345
63
346
63
347
63
371
    -1
372
    -1
  0
DIMSTYLE
105
B1A
330
A
100
AcDbSymbolTableRecord
100
AcDbDimStyleTableRecord
  2
AM_ANSI$SF
 70
     0
  4
mm
 41
0.12
 42
0.05
 43
0.5
 44
0.1
 47
0.1
 48
0.1
 75
     1
 76
     1
 78
     7
 79
     2
 90
     1
140
0.12
141
0.0
146
0.71
147
0.06
176
   256
177
   256
178
     2
274
     4
284
     7
340
5D
345
63
346
63
347
63
371
    -1
372
    -1
  0
DIMSTYLE
105
B1F
330
A
100
AcDbSymbolTableRecord
100
AcDbDimStyleTableRecord
  2
AM_ANSI$SH
 70
     0
  4
mm
 41
0.12
 42
0.05
 43
0.5
 44
0.1
 47
0.1
 48
0.1
 75
     1
 76
     1
 78
     7
 79
     2
 90
     1
140
0.12
141
0.0
146
0.71
147
0.06
173
     1
176
   256
177
   256
178
     2
274
     4
284
     7
340
5D
343
B1B
345
63
346
63
347
63
371
    -1
372
    -1
  0
ENDTAB
  0
TABLE
  2
BLOCK_RECORD
  5
1
330
0
100
AcDbSymbolTable
 70
    20
  0
BLOCK_RECORD
  5
75
330
1
100
AcDbSymbolTableRecord
100
AcDbBlockTableRecord
  2
*Model_Space
340
78
 70
     0
280
     1
281
     0
  0
BLOCK_RECORD
  5
71
330
1
100
AcDbSymbolTableRecord
100
AcDbBlockTableRecord
  2
*Paper_Space
340
74
 70
     0
280
     1
281
     0
  0
BLOCK_RECORD
  5
79
330
1
100
AcDbSymbolTableRecord
100
AcDbBlockTableRecord
  2
*Paper_Space0
340
7C
 70
     0
280
     1
281
     0
  0
BLOCK_RECORD
  5
B1B
330
1
100
AcDbSymbolTableRecord
100
AcDbBlockTableRecord
  2
GENAXEH
340
0
 70
     0
280
     1
281
     0
  0
BLOCK_RECORD
  5
B33
330
1
100
AcDbSymbolTableRecord
100
AcDbBlockTableRecord
  2
PBS-6-SIDE VIEW
340
0
310
2800000020000000200000000100080000000000000400000000000000000000000000000000000000000000000080000080000000808000800000008000800080800000C0C0C000C0DCC000F0CAA6000020400000206000002080000020A0000020C0000020E00000400000004020000040400000406000004080000040A0
310
000040C0000040E00000600000006020000060400000606000006080000060A0000060C0000060E00000800000008020000080400000806000008080000080A0000080C0000080E00000A0000000A0200000A0400000A0600000A0800000A0A00000A0C00000A0E00000C0000000C0200000C0400000C0600000C0800000C0
310
A00000C0C00000C0E00000E0000000E0200000E0400000E0600000E0800000E0A00000E0C00000E0E00040000000400020004000400040006000400080004000A0004000C0004000E00040200000402020004020400040206000402080004020A0004020C0004020E000404000004040200040404000404060004040800040
310
40A0004040C0004040E00040600000406020004060400040606000406080004060A0004060C0004060E00040800000408020004080400040806000408080004080A0004080C0004080E00040A0000040A0200040A0400040A0600040A0800040A0A00040A0C00040A0E00040C0000040C0200040C0400040C0600040C08000
310
40C0A00040C0C00040C0E00040E0000040E0200040E0400040E0600040E0800040E0A00040E0C00040E0E00080000000800020008000400080006000800080008000A0008000C0008000E00080200000802020008020400080206000802080008020A0008020C0008020E00080400000804020008040400080406000804080
310
008040A0008040C0008040E00080600000806020008060400080606000806080008060A0008060C0008060E00080800000808020008080400080806000808080008080A0008080C0008080E00080A0000080A0200080A0400080A0600080A0800080A0A00080A0C00080A0E00080C0000080C0200080C0400080C0600080C0
310
800080C0A00080C0C00080C0E00080E0000080E0200080E0400080E0600080E0800080E0A00080E0C00080E0E000C0000000C0002000C0004000C0006000C0008000C000A000C000C000C000E000C0200000C0202000C0204000C0206000C0208000C020A000C020C000C020E000C0400000C0402000C0404000C0406000C0
310
408000C040A000C040C000C040E000C0600000C0602000C0604000C0606000C0608000C060A000C060C000C060E000C0800000C0802000C0804000C0806000C0808000C080A000C080C000C080E000C0A00000C0A02000C0A04000C0A06000C0A08000C0A0A000C0A0C000C0A0E000C0C00000C0C02000C0C04000C0C06000
310
C0C08000C0C0A000F0FBFF00A4A0A000808080000000FF0000FF000000FFFF00FF000000FF00FF00FFFF0000FFFFFF000000000000000000000000000000000000000000000000000000000000000000000000000000FFFFFFFFFFFFFFFFFFFFFFFFFFFFFFFFFFFFFFFF000000000000000000000000FFFFFFFFFFFFFFFFFF
310
FFFFFFFFFFFFFFFFFFFFFF0000000000000000000000000000000000000000FF0000FF00000000000000000000000000000000000000000000000000000000FF0000FF00000000000000000000000000000000000000000000000000000000FF0000FF00000000000000000000000000000000000000000000000000000000
310
FF0000FF00000000000000000000000000000000000000000000000000000000FF0000FF00000000000000000000000000000000000000000000000000000000FF0000FF00000000000000000000000000000000000000000000000000000000FF0000FF000000000000000000000000000000000000000000000000000000
310
00FF0000FF00000000000000000000000000000000000000000000000000000000FF0000FF00000000000000000000000000000000000000000000000000000000FF0000FF00000000000000000000000000000000000000000000000000000000FF0000FF0000000000000000000000000000000000000000000000000000
310
0000FF0000FF00000000000000000000000000000000000000000000000000000000FF0000FF00000000000000000000000000000000000000000000000000000000FF0000FF00000000000000000000000000000000000000000000000000000000FF0000FF00000000000000000000000000000000000000000000000000
310
000000FF0000FF00000000000000000000000000000000000000000000000000000000FF0000FF00000000000000000000000000000000000000000000000000000000FF0000FF00000000000000000000000000000000000000000000000000000000FF0000FF000000000000000000000000000000000000000000000000
310
00000000FF0000FF00000000000000000000000000000000000000000000000000000000FF0000FF00000000000000000000000000000000000000000000000000000000FF0000FF00000000000000000000000000000000000000000000000000000000FF0000FF00000000000000000000000000000000000000FFFFFFFF
310
FFFFFFFFFFFFFFFFFFFFFFFFFFFFFFFFFFFF000000000000000000FF0000FFFFFFFFFFFFFFFFFFFFFFFFFFFFFFFFFFFF0000FF0000000000000000FF00000000FFFF00000000FFFF00000000FFFF00000000FF000000000000000000FFFF0000FFFF00000000FFFF00000000FFFF0000FFFF000000000000000000000000FF
310
FFFFFFFFFFFFFFFFFFFFFFFFFFFFFFFFFF000000000000000000000000000000000000000000000000000000000000000000000000000000
102
{BLKREFS
331
B76
102
}
 70
     1
280
     1
281
     0
  0
BLOCK_RECORD
  5
B77
330
1
100
AcDbSymbolTableRecord
100
AcDbBlockTableRecord
  2
PBS-6-FRONT VIEW
340
0
310
2800000020000000200000000100080000000000000400000000000000000000000000000000000000000000000080000080000000808000800000008000800080800000C0C0C000C0DCC000F0CAA6000020400000206000002080000020A0000020C0000020E00000400000004020000040400000406000004080000040A0
310
000040C0000040E00000600000006020000060400000606000006080000060A0000060C0000060E00000800000008020000080400000806000008080000080A0000080C0000080E00000A0000000A0200000A0400000A0600000A0800000A0A00000A0C00000A0E00000C0000000C0200000C0400000C0600000C0800000C0
310
A00000C0C00000C0E00000E0000000E0200000E0400000E0600000E0800000E0A00000E0C00000E0E00040000000400020004000400040006000400080004000A0004000C0004000E00040200000402020004020400040206000402080004020A0004020C0004020E000404000004040200040404000404060004040800040
310
40A0004040C0004040E00040600000406020004060400040606000406080004060A0004060C0004060E00040800000408020004080400040806000408080004080A0004080C0004080E00040A0000040A0200040A0400040A0600040A0800040A0A00040A0C00040A0E00040C0000040C0200040C0400040C0600040C08000
310
40C0A00040C0C00040C0E00040E0000040E0200040E0400040E0600040E0800040E0A00040E0C00040E0E00080000000800020008000400080006000800080008000A0008000C0008000E00080200000802020008020400080206000802080008020A0008020C0008020E00080400000804020008040400080406000804080
310
008040A0008040C0008040E00080600000806020008060400080606000806080008060A0008060C0008060E00080800000808020008080400080806000808080008080A0008080C0008080E00080A0000080A0200080A0400080A0600080A0800080A0A00080A0C00080A0E00080C0000080C0200080C0400080C0600080C0
310
800080C0A00080C0C00080C0E00080E0000080E0200080E0400080E0600080E0800080E0A00080E0C00080E0E000C0000000C0002000C0004000C0006000C0008000C000A000C000C000C000E000C0200000C0202000C0204000C0206000C0208000C020A000C020C000C020E000C0400000C0402000C0404000C0406000C0
310
408000C040A000C040C000C040E000C0600000C0602000C0604000C0606000C0608000C060A000C060C000C060E000C0800000C0802000C0804000C0806000C0808000C080A000C080C000C080E000C0A00000C0A02000C0A04000C0A06000C0A08000C0A0A000C0A0C000C0A0E000C0C00000C0C02000C0C04000C0C06000
310
C0C08000C0C0A000F0FBFF00A4A0A000808080000000FF0000FF000000FFFF00FF000000FF00FF00FFFF0000FFFFFF0000000000000000000000000000000000000000000000000000000000000000000000000000000000000000000000000000000000000000000000000000000000000000000000000000000000000000
310
00000000000000000000000000000000000000000000000000000000000000000000000000000000000000000000000000000000000000000000000000000000000000000000000000000000000000000000000000000000000000000000000000000000000000000000000000000000000000000000000000000000000000
310
00000000000000000000000000000000000000000000000000000000000000000000000000000000000000000000000000000000000000000000000000000000000000000000000000000000000000000000000000000000000000000000000000000000000000000000000000000000000000000000000000000000000000
310
0000000000000000000000000000000000000000000000000000000000000000000000000000000000000000000000000000000000FFFFFF00000000000000000000000000000000000000000000FFFFFF0000000000FF000000000000000000000000000000000000000000000000FF000000000000FF0000000000000000
310
00000000000000000000000000000000FF000000000000FF000000000000000000000000000000000000000000000000FF000000000000FF000000000000000000000000000000000000000000000000FF000000000000FFFFFFFFFFFFFFFFFFFFFFFFFFFFFFFFFFFFFFFFFFFFFFFFFFFF00000000FFFFFFFFFFFFFFFFFFFF
310
FFFFFFFFFFFFFFFFFFFFFFFFFFFFFFFFFFFFFFFF0000FFFFFFFFFFFFFFFFFFFFFFFFFFFFFFFFFFFFFFFFFFFFFFFFFFFFFFFFFFFF000000000000000000000000000000000000000000000000000000000000000000000000000000000000000000000000000000000000000000000000000000000000000000000000000000
310
00000000000000000000000000000000000000000000000000000000000000000000000000000000000000000000000000000000000000000000000000000000000000000000000000000000000000000000000000000000000000000000000000000000000000000000000000000000000000000000000000000000000000
310
00000000000000000000000000000000000000000000000000000000000000000000000000000000000000000000000000000000000000000000000000000000000000000000000000000000000000000000000000000000000000000000000000000000000000000000000000000000000000000000000000000000000000
310
0000000000000000000000000000000000000000000000000000000000000000000000000000000000000000000000000000000000000000
102
{BLKREFS
331
BCF
102
}
 70
     1
280
     1
281
     0
  0
BLOCK_RECORD
  5
BD0
330
1
100
AcDbSymbolTableRecord
100
AcDbBlockTableRecord
  2
PBS-6-TOP VIEW
340
0
310
2800000020000000200000000100080000000000000400000000000000000000000000000000000000000000000080000080000000808000800000008000800080800000C0C0C000C0DCC000F0CAA6000020400000206000002080000020A0000020C0000020E00000400000004020000040400000406000004080000040A0
310
000040C0000040E00000600000006020000060400000606000006080000060A0000060C0000060E00000800000008020000080400000806000008080000080A0000080C0000080E00000A0000000A0200000A0400000A0600000A0800000A0A00000A0C00000A0E00000C0000000C0200000C0400000C0600000C0800000C0
310
A00000C0C00000C0E00000E0000000E0200000E0400000E0600000E0800000E0A00000E0C00000E0E00040000000400020004000400040006000400080004000A0004000C0004000E00040200000402020004020400040206000402080004020A0004020C0004020E000404000004040200040404000404060004040800040
310
40A0004040C0004040E00040600000406020004060400040606000406080004060A0004060C0004060E00040800000408020004080400040806000408080004080A0004080C0004080E00040A0000040A0200040A0400040A0600040A0800040A0A00040A0C00040A0E00040C0000040C0200040C0400040C0600040C08000
310
40C0A00040C0C00040C0E00040E0000040E0200040E0400040E0600040E0800040E0A00040E0C00040E0E00080000000800020008000400080006000800080008000A0008000C0008000E00080200000802020008020400080206000802080008020A0008020C0008020E00080400000804020008040400080406000804080
310
008040A0008040C0008040E00080600000806020008060400080606000806080008060A0008060C0008060E00080800000808020008080400080806000808080008080A0008080C0008080E00080A0000080A0200080A0400080A0600080A0800080A0A00080A0C00080A0E00080C0000080C0200080C0400080C0600080C0
310
800080C0A00080C0C00080C0E00080E0000080E0200080E0400080E0600080E0800080E0A00080E0C00080E0E000C0000000C0002000C0004000C0006000C0008000C000A000C000C000C000E000C0200000C0202000C0204000C0206000C0208000C020A000C020C000C020E000C0400000C0402000C0404000C0406000C0
310
408000C040A000C040C000C040E000C0600000C0602000C0604000C0606000C0608000C060A000C060C000C060E000C0800000C0802000C0804000C0806000C0808000C080A000C080C000C080E000C0A00000C0A02000C0A04000C0A06000C0A08000C0A0A000C0A0C000C0A0E000C0C00000C0C02000C0C04000C0C06000
310
C0C08000C0C0A000F0FBFF00A4A0A000808080000000FF0000FF000000FFFF00FF000000FF00FF00FFFF0000FFFFFF0000000000000000000000000000000000000000000000000000000000000000000000000000000000000000000000000000000000000000000000000000000000000000000000000000000000000000
310
00000000000000000000000000000000000000000000000000000000000000000000000000000000000000000000000000000000000000000000000000000000000000000000000000000000000000000000000000000000000000000000000000000000000000000000000000000000000000000000000000000000000000
310
00000000000000000000000000000000000000000000000000000000000000000000000000000000000000000000000000000000000000000000000000000000000000000000000000000000000000000000000000000000000000000000000000000000000000000000000000000000000000000000000000000000000000
310
000000000000000000000000000000000000000000000000000000000000000000000000000000000000000000000000000000000000000000000000000000000000000000000000000000000000000000000000FFFFFFFFFFFFFFFFFFFFFFFFFFFFFFFFFFFFFFFFFFFFFFFFFFFFFFFFFFFF0000FFFFFFFFFFFFFFFFFFFFFF
310
FFFFFFFFFFFFFFFFFFFFFFFFFFFFFFFFFFFFFF0000FFFFFFFFFFFFFFFFFFFFFFFFFFFFFFFFFFFFFFFFFFFFFFFFFFFFFFFFFFFF0000FFFFFFFFFFFFFFFFFFFFFFFFFFFFFFFFFFFFFFFFFFFFFFFFFFFFFFFFFFFF0000FFFFFFFFFFFFFFFFFFFFFFFFFFFFFFFFFFFFFFFFFFFFFFFFFFFFFFFFFFFF0000FFFFFFFFFFFFFFFFFFFF
310
FFFFFFFFFFFFFFFFFFFFFFFFFFFFFFFFFFFFFFFF0000000000000000000000000000000000000000000000000000000000000000000000000000000000000000000000000000000000000000000000000000000000000000000000000000000000000000000000000000000000000000000000000000000000000000000000
310
00000000000000000000000000000000000000000000000000000000000000000000000000000000000000000000000000000000000000000000000000000000000000000000000000000000000000000000000000000000000000000000000000000000000000000000000000000000000000000000000000000000000000
310
00000000000000000000000000000000000000000000000000000000000000000000000000000000000000000000000000000000000000000000000000000000000000000000000000000000000000000000000000000000000000000000000000000000000000000000000000000000000000000000000000000000000000
310
0000000000000000000000000000000000000000000000000000000000000000000000000000000000000000000000000000000000000000
102
{BLKREFS
331
C17
102
}
 70
     1
280
     1
281
     0
  0
ENDTAB
  0
ENDSEC
  0
SECTION
  2
BLOCKS
  0
BLOCK
  5
76
330
75
100
AcDbEntity
  8
0
100
AcDbBlockBegin
  2
*Model_Space
 70
     0
 10
0.0
 20
0.0
 30
0.0
  3
*Model_Space
  1

  0
ENDBLK
  5
77
330
75
100
AcDbEntity
  8
0
100
AcDbBlockEnd
  0
BLOCK
  5
72
330
71
100
AcDbEntity
 67
     1
  8
0
100
AcDbBlockBegin
  2
*Paper_Space
 70
     0
 10
0.0
 20
0.0
 30
0.0
  3
*Paper_Space
  1

  0
ENDBLK
  5
73
330
71
100
AcDbEntity
 67
     1
  8
0
100
AcDbBlockEnd
  0
BLOCK
  5
7A
330
79
100
AcDbEntity
 67
     1
  8
0
100
AcDbBlockBegin
  2
*Paper_Space0
 70
     0
 10
0.0
 20
0.0
 30
0.0
  3
*Paper_Space0
  1

  0
ENDBLK
  5
7B
330
79
100
AcDbEntity
 67
     1
  8
0
100
AcDbBlockEnd
  0
BLOCK
  5
B1D
330
B1B
100
AcDbEntity
  8
0
100
AcDbBlockBegin
  2
GENAXEH
 70
     0
 10
0.0
 20
0.0
 30
0.0
  3
GENAXEH
  1

  0
LINE
  5
B1C
330
B1B
100
AcDbEntity
  8
0
100
AcDbLine
 10
-1.0
 20
0.0
 30
0.0
 11
1.0
 21
0.0
 31
0.0
  0
ENDBLK
  5
B1E
330
B1B
100
AcDbEntity
  8
0
100
AcDbBlockEnd
  0
BLOCK
  5
B34
330
B33
100
AcDbEntity
  8
0
100
AcDbBlockBegin
  2
PBS-6-SIDE VIEW
 70
     0
 10
0.0
 20
0.0
 30
0.0
  3
PBS-6-SIDE VIEW
  1

  0
ARC
  5
B36
330
B33
100
AcDbEntity
  8
Visible (ANSI)
100
AcDbCircle
 10
19.59817277458655
 20
48.25978056800146
 30
0.0
 40
0.250000000000002
100
AcDbArc
 50
0.0
 51
34.81793259684155
  0
LINE
  5
B37
330
B33
100
AcDbEntity
  8
Visible (ANSI)
100
AcDbLine
 10
19.84817277458654
 20
48.25978056800146
 30
0.0
 11
19.84817277458655
 21
46.75978056800145
 31
0.0
  0
ARC
  5
B38
330
B33
100
AcDbEntity
  8
Visible (ANSI)
100
AcDbCircle
 10
19.59817277458655
 20
46.75978056800145
 30
0.0
 40
0.2500000000000002
100
AcDbArc
 50
300.0000000000007
 51
0.0
  0
LINE
  5
B39
330
B33
100
AcDbEntity
  8
Visible (ANSI)
100
AcDbLine
 10
12.76065496103669
 20
48.08135721645453
 30
0.0
 11
12.51445302278363
 21
48.03794517203781
 31
0.0
  0
LINE
  5
B3A
330
B33
100
AcDbEntity
  8
Visible (ANSI)
100
AcDbLine
 10
12.49999568210382
 20
48.11993682539522
 30
0.0
 11
12.51445302278363
 21
48.03794517203781
 31
0.0
  0
LINE
  5
B3B
330
B33
100
AcDbEntity
  8
Visible (ANSI)
100
AcDbLine
 10
25.18189252638947
 20
48.03794517203782
 30
0.0
 11
25.24701059301456
 21
48.40724807941739
 31
0.0
  0
LINE
  5
B3C
330
B33
100
AcDbEntity
  8
Visible (ANSI)
100
AcDbLine
 10
25.11509167473652
 20
48.4305089439757
 30
0.0
 11
25.24701059301456
 21
48.40724807941739
 31
0.0
  0
LINE
  5
B3D
330
B33
100
AcDbEntity
  8
Visible (ANSI)
100
AcDbLine
 10
25.18189252638947
 20
48.03794517203781
 30
0.0
 11
24.93569058813641
 21
48.08135721645454
 31
0.0
  0
LINE
  5
B3E
330
B33
100
AcDbEntity
  8
Visible (ANSI)
100
AcDbLine
 10
12.76065496103669
 20
48.08135721645453
 30
0.0
 11
15.15805470796145
 21
48.50408347538103
 31
0.0
  0
ARC
  5
B3F
330
B33
100
AcDbEntity
  8
Visible (ANSI)
100
AcDbCircle
 10
15.22317277458654
 20
48.13478056800146
 30
0.0
 40
0.3749999999999888
100
AcDbArc
 50
89.99999999999872
 51
99.999999999999
  0
LINE
  5
B40
330
B33
100
AcDbEntity
  8
Visible (ANSI)
100
AcDbLine
 10
22.47317277458655
 20
48.50978056800145
 30
0.0
 11
19.91067277458654
 21
48.50978056800145
 31
0.0
  0
LINE
  5
B41
330
B33
100
AcDbEntity
  8
Visible (ANSI)
100
AcDbLine
 10
17.53567277458655
 20
48.50978056800145
 30
0.0
 11
15.22317277458655
 21
48.50978056800144
 31
0.0
  0
ARC
  5
B42
330
B33
100
AcDbEntity
  8
Visible (ANSI)
100
AcDbCircle
 10
22.47317277458655
 20
48.13478056800146
 30
0.0
 40
0.3749999999999888
100
AcDbArc
 50
80.00000000000067
 51
90.00000000000062
  0
LINE
  5
B43
330
B33
100
AcDbEntity
  8
Visible (ANSI)
100
AcDbLine
 10
24.93569058813641
 20
48.08135721645456
 30
0.0
 11
22.53829084121165
 21
48.50408347538103
 31
0.0
  0
LINE
  5
B44
330
B33
100
AcDbEntity
  8
Visible (ANSI)
100
AcDbLine
 10
12.63565496103669
 20
48.14385721645454
 30
0.0
 11
12.38945302278364
 21
48.10044517203781
 31
0.0
  0
LINE
  5
B45
330
B33
100
AcDbEntity
  8
Visible (ANSI)
100
AcDbLine
 10
12.32433495615854
 20
48.46974807941737
 30
0.0
 11
12.38945302278363
 21
48.10044517203781
 31
0.0
  0
LINE
  5
B46
330
B33
100
AcDbEntity
  8
Visible (ANSI)
100
AcDbLine
 10
25.05689252638947
 20
48.10044517203781
 30
0.0
 11
25.12201059301457
 21
48.46974807941737
 31
0.0
  0
LINE
  5
B47
330
B33
100
AcDbEntity
  8
Visible (ANSI)
100
AcDbLine
 10
25.05689252638947
 20
48.10044517203781
 30
0.0
 11
24.81069058813642
 21
48.14385721645454
 31
0.0
  0
LINE
  5
B48
330
B33
100
AcDbEntity
  8
Visible (ANSI)
100
AcDbLine
 10
12.63565496103669
 20
48.14385721645454
 30
0.0
 11
15.03305470796146
 21
48.56658347538102
 31
0.0
  0
ARC
  5
B49
330
B33
100
AcDbEntity
  8
Visible (ANSI)
100
AcDbCircle
 10
15.09817277458655
 20
48.19728056800145
 30
0.0
 40
0.3749999999999888
100
AcDbArc
 50
89.99999999999905
 51
99.99999999999928
  0
ARC
  5
B4A
330
B33
100
AcDbEntity
  8
Visible (ANSI)
100
AcDbCircle
 10
15.09817277458655
 20
48.19728056800144
 30
0.0
 40
0.7500000000000109
100
AcDbArc
 50
89.99999999999969
 51
99.99999999999944
  0
LINE
  5
B4B
330
B33
100
AcDbEntity
  8
Visible (ANSI)
100
AcDbLine
 10
22.34817277458655
 20
48.57228056800146
 30
0.0
 11
15.09817277458656
 21
48.57228056800146
 31
0.0
  0
LINE
  5
B4C
330
B33
100
AcDbEntity
  8
Visible (ANSI)
100
AcDbLine
 10
15.09817277458655
 20
48.94728056800143
 30
0.0
 11
15.22297277458656
 21
48.94728056800143
 31
0.0
  0
LINE
  5
B4D
330
B33
100
AcDbEntity
  8
Visible (ANSI)
100
AcDbLine
 10
18.59817277458656
 20
48.94728056800143
 30
0.0
 11
18.84817277458655
 21
48.94728056800143
 31
0.0
  0
LINE
  5
B4E
330
B33
100
AcDbEntity
  8
Visible (ANSI)
100
AcDbLine
 10
22.22337277458656
 20
48.94728056800143
 30
0.0
 11
22.34817277458655
 21
48.94728056800143
 31
0.0
  0
ARC
  5
B4F
330
B33
100
AcDbEntity
  8
Visible (ANSI)
100
AcDbCircle
 10
22.34817277458656
 20
48.19728056800145
 30
0.0
 40
0.3749999999999888
100
AcDbArc
 50
80.00000000000067
 51
90.00000000000062
  0
ARC
  5
B50
330
B33
100
AcDbEntity
  8
Visible (ANSI)
100
AcDbCircle
 10
22.34817277458656
 20
48.19728056800143
 30
0.0
 40
0.7500000000000109
100
AcDbArc
 50
80.00000000000069
 51
90.0000000000003
  0
LINE
  5
B51
330
B33
100
AcDbEntity
  8
Visible (ANSI)
100
AcDbLine
 10
24.81069058813642
 20
48.14385721645454
 30
0.0
 11
22.41329084121165
 21
48.56658347538102
 31
0.0
  0
LINE
  5
B52
330
B33
100
AcDbEntity
  8
Visible (ANSI)
100
AcDbLine
 10
22.6742615387314
 20
50.42449219751975
 30
0.0
 11
25.38248285951496
 21
49.9469597089357
 31
0.0
  0
ARC
  5
B53
330
B33
100
AcDbEntity
  8
Visible (ANSI)
100
AcDbCircle
 10
25.1168356602256
 20
49.23223051860574
 30
0.0
 40
0.7624999999999967
100
AcDbArc
 50
270.3888578154691
 51
69.61114218452999
  0
LINE
  5
B54
330
B33
100
AcDbEntity
  8
Visible (ANSI)
100
AcDbLine
 10
25.12201059301457
 20
48.46974807941737
 30
0.0
 11
22.41378927223101
 21
48.94728056800143
 31
0.0
  0
LINE
  5
B55
330
B33
100
AcDbEntity
  8
Visible (ANSI)
100
AcDbLine
 10
22.41378927223101
 20
48.94728056800143
 30
0.0
 11
22.6742615387314
 21
50.42449219751975
 31
0.0
  0
LINE
  5
B56
330
B33
100
AcDbEntity
  8
Visible (ANSI)
100
AcDbLine
 10
15.03255627694208
 20
48.94728056800143
 30
0.0
 11
12.32433495615853
 21
48.46974807941737
 31
0.0
  0
ARC
  5
B57
330
B33
100
AcDbEntity
  8
Visible (ANSI)
100
AcDbCircle
 10
12.32950988894751
 20
49.23223051860574
 30
0.0
 40
0.7624999999999953
100
AcDbArc
 50
110.3888578154695
 51
269.6111421845304
  0
LINE
  5
B58
330
B33
100
AcDbEntity
  8
Visible (ANSI)
100
AcDbLine
 10
12.06386268965813
 20
49.9469597089357
 30
0.0
 11
14.77208401044169
 21
50.42449219751975
 31
0.0
  0
LINE
  5
B59
330
B33
100
AcDbEntity
  8
Visible (ANSI)
100
AcDbLine
 10
14.77208401044169
 20
50.42449219751975
 30
0.0
 11
15.03255627694208
 21
48.94728056800143
 31
0.0
  0
LINE
  5
B5A
330
B33
100
AcDbEntity
  8
Visible (ANSI)
100
AcDbLine
 10
19.72317277458655
 20
48.32228056800146
 30
0.0
 11
19.72317277458657
 21
33.69728056800145
 31
0.0
  0
LINE
  5
B5B
330
B33
100
AcDbEntity
  8
Visible (ANSI)
100
AcDbLine
 10
17.72317277458655
 20
48.32228056800145
 30
0.0
 11
17.72317277458657
 21
33.69728056800146
 31
0.0
  0
LINE
  5
B5C
330
B33
100
AcDbEntity
  8
Visible (ANSI)
100
AcDbLine
 10
24.47317277458657
 20
33.57228056800146
 30
0.0
 11
12.97317277458657
 21
33.57228056800146
 31
0.0
  0
LINE
  5
B5D
330
B33
100
AcDbEntity
  8
Visible (ANSI)
100
AcDbLine
 10
24.47317277458656
 20
33.57228056800146
 30
0.0
 11
24.72317277458656
 21
33.57228056800146
 31
0.0
  0
LINE
  5
B5E
330
B33
100
AcDbEntity
  8
Visible (ANSI)
100
AcDbLine
 10
12.72317277458656
 20
33.57228056800146
 30
0.0
 11
12.97317277458656
 21
33.57228056800146
 31
0.0
  0
LINE
  5
B5F
330
B33
100
AcDbEntity
  8
Visible (ANSI)
100
AcDbLine
 10
24.72317277458657
 20
33.19728056800145
 30
0.0
 11
24.72317277458657
 21
33.57228056800146
 31
0.0
  0
LINE
  5
B60
330
B33
100
AcDbEntity
  8
Visible (ANSI)
100
AcDbLine
 10
12.72317277458656
 20
33.57228056800146
 30
0.0
 11
12.72317277458656
 21
33.19728056800145
 31
0.0
  0
LINE
  5
B61
330
B33
100
AcDbEntity
  8
Visible (ANSI)
100
AcDbLine
 10
12.97317277458656
 20
33.19728056800145
 30
0.0
 11
12.72317277458656
 21
33.19728056800145
 31
0.0
  0
LINE
  5
B62
330
B33
100
AcDbEntity
  8
Visible (ANSI)
100
AcDbLine
 10
12.97317277458656
 20
33.19728056800145
 30
0.0
 11
24.47317277458656
 21
33.19728056800145
 31
0.0
  0
LINE
  5
B63
330
B33
100
AcDbEntity
  8
Visible (ANSI)
100
AcDbLine
 10
24.72317277458656
 20
33.19728056800145
 30
0.0
 11
24.47317277458656
 21
33.19728056800145
 31
0.0
  0
LINE
  5
B64
330
B33
100
AcDbEntity
  8
Visible (ANSI)
100
AcDbLine
 10
18.84817277458655
 20
48.94728056800145
 30
0.0
 11
18.84817277458655
 21
50.44728056800146
 31
0.0
  0
LINE
  5
B65
330
B33
100
AcDbEntity
  8
Visible (ANSI)
100
AcDbLine
 10
18.84817277458655
 20
50.44728056800146
 30
0.0
 11
22.22337277458655
 21
50.44728056800146
 31
0.0
  0
LINE
  5
B66
330
B33
100
AcDbEntity
  8
Visible (ANSI)
100
AcDbLine
 10
22.22337277458655
 20
50.44728056800146
 30
0.0
 11
22.22337277458655
 21
48.94728056800145
 31
0.0
  0
LINE
  5
B67
330
B33
100
AcDbEntity
  8
Visible (ANSI)
100
AcDbLine
 10
22.22337277458655
 20
48.94728056800145
 30
0.0
 11
18.84817277458655
 21
48.94728056800145
 31
0.0
  0
LINE
  5
B68
330
B33
100
AcDbEntity
  8
Visible (ANSI)
100
AcDbLine
 10
15.22297277458655
 20
48.94728056800145
 30
0.0
 11
15.22297277458655
 21
50.44728056800146
 31
0.0
  0
LINE
  5
B69
330
B33
100
AcDbEntity
  8
Visible (ANSI)
100
AcDbLine
 10
15.22297277458655
 20
50.44728056800146
 30
0.0
 11
18.59817277458655
 21
50.44728056800146
 31
0.0
  0
LINE
  5
B6A
330
B33
100
AcDbEntity
  8
Visible (ANSI)
100
AcDbLine
 10
18.59817277458655
 20
50.44728056800146
 30
0.0
 11
18.59817277458655
 21
48.94728056800145
 31
0.0
  0
LINE
  5
B6B
330
B33
100
AcDbEntity
  8
Visible (ANSI)
100
AcDbLine
 10
18.59817277458655
 20
48.94728056800145
 30
0.0
 11
15.22297277458655
 21
48.94728056800145
 31
0.0
  0
LINE
  5
B6C
330
B33
100
AcDbEntity
  8
Visible (ANSI)
100
AcDbLine
 10
17.47317277458655
 20
48.57228056800146
 30
0.0
 11
17.72317277458655
 21
48.32228056800145
 31
0.0
  0
LINE
  5
B6D
330
B33
100
AcDbEntity
  8
Visible (ANSI)
100
AcDbLine
 10
17.72317277458655
 20
48.32228056800145
 30
0.0
 11
17.97317277458654
 21
48.32228056800145
 31
0.0
  0
LINE
  5
B6E
330
B33
100
AcDbEntity
  8
Visible (ANSI)
100
AcDbLine
 10
19.47317277458654
 20
48.32228056800145
 30
0.0
 11
17.97317277458654
 21
48.32228056800145
 31
0.0
  0
LINE
  5
B6F
330
B33
100
AcDbEntity
  8
Visible (ANSI)
100
AcDbLine
 10
19.47317277458655
 20
48.32228056800145
 30
0.0
 11
19.72317277458655
 21
48.32228056800145
 31
0.0
  0
LINE
  5
B70
330
B33
100
AcDbEntity
  8
Visible (ANSI)
100
AcDbLine
 10
19.97317277458655
 20
48.57228056800146
 30
0.0
 11
19.72317277458655
 21
48.32228056800145
 31
0.0
  0
LINE
  5
B71
330
B33
100
AcDbEntity
  8
Visible (ANSI)
100
AcDbLine
 10
19.47317277458657
 20
33.69728056800146
 30
0.0
 11
17.97317277458657
 21
33.69728056800146
 31
0.0
  0
LINE
  5
B72
330
B33
100
AcDbEntity
  8
Visible (ANSI)
100
AcDbLine
 10
19.72317277458656
 20
33.69728056800146
 30
0.0
 11
19.84817277458656
 21
33.57228056800146
 31
0.0
  0
LINE
  5
B73
330
B33
100
AcDbEntity
  8
Visible (ANSI)
100
AcDbLine
 10
19.47317277458657
 20
33.69728056800146
 30
0.0
 11
19.72317277458657
 21
33.69728056800146
 31
0.0
  0
LINE
  5
B74
330
B33
100
AcDbEntity
  8
Visible (ANSI)
100
AcDbLine
 10
17.72317277458657
 20
33.69728056800146
 30
0.0
 11
17.59817277458657
 21
33.57228056800146
 31
0.0
  0
LINE
  5
B75
330
B33
100
AcDbEntity
  8
Visible (ANSI)
100
AcDbLine
 10
17.72317277458657
 20
33.69728056800146
 30
0.0
 11
17.97317277458657
 21
33.69728056800146
 31
0.0
  0
ENDBLK
  5
B35
330
B33
100
AcDbEntity
  8
0
100
AcDbBlockEnd
  0
BLOCK
  5
B78
330
B77
100
AcDbEntity
  8
0
100
AcDbBlockBegin
  2
PBS-6-FRONT VIEW
 70
     0
 10
0.0
 20
0.0
 30
0.0
  3
PBS-6-FRONT VIEW
  1

  0
LINE
  5
B7A
330
B77
100
AcDbEntity
  8
Visible (ANSI)
100
AcDbLine
 10
115.4910587533044
 20
46.75978056800143
 30
0.0
 11
115.4910587533044
 21
48.10044517203781
 31
0.0
  0
LINE
  5
B7B
330
B77
100
AcDbEntity
  8
Visible (ANSI)
100
AcDbLine
 10
115.4910587533044
 20
46.75978056800143
 30
0.0
 11
115.4910587533043
 21
46.50978056800144
 31
0.0
  0
LINE
  5
B7C
330
B77
100
AcDbEntity
  8
Visible (ANSI)
100
AcDbLine
 10
53.99105875330435
 20
46.50978056800144
 30
0.0
 11
115.4910587533043
 21
46.50978056800144
 31
0.0
  0
LINE
  5
B7D
330
B77
100
AcDbEntity
  8
Visible (ANSI)
100
AcDbLine
 10
53.99105875330441
 20
48.10044517203779
 30
0.0
 11
53.99105875330441
 21
46.75978056800143
 31
0.0
  0
LINE
  5
B7E
330
B77
100
AcDbEntity
  8
Visible (ANSI)
100
AcDbLine
 10
53.99105875330435
 20
46.50978056800144
 30
0.0
 11
53.99105875330441
 21
46.75978056800143
 31
0.0
  0
LINE
  5
B7F
330
B77
100
AcDbEntity
  8
Visible (ANSI)
100
AcDbLine
 10
75.74105875330594
 20
48.45066012383411
 30
0.0
 11
75.74105875330591
 21
48.46974807941737
 31
0.0
  0
LINE
  5
B80
330
B77
100
AcDbEntity
  8
Visible (ANSI)
100
AcDbLine
 10
72.74105875330589
 20
48.46974807941737
 30
0.0
 11
72.74105875330594
 21
48.45066012383411
 31
0.0
  0
LINE
  5
B81
330
B77
100
AcDbEntity
  8
Visible (ANSI)
100
AcDbLine
 10
75.49105875330599
 20
48.40724807941738
 30
0.0
 11
72.99105875330599
 21
48.40724807941738
 31
0.0
  0
LINE
  5
B82
330
B77
100
AcDbEntity
  8
Visible (ANSI)
100
AcDbLine
 10
75.49105875330599
 20
48.0379451720378
 30
0.0
 11
72.99105875330599
 21
48.0379451720378
 31
0.0
  0
LINE
  5
B83
330
B77
100
AcDbEntity
  8
Visible (ANSI)
100
AcDbLine
 10
75.74105875330591
 20
48.08135721645453
 30
0.0
 11
75.74105875330594
 21
48.45066012383411
 31
0.0
  0
LINE
  5
B84
330
B77
100
AcDbEntity
  8
Visible (ANSI)
100
AcDbLine
 10
72.74105875330594
 20
48.45066012383411
 30
0.0
 11
72.74105875330592
 21
48.08135721645453
 31
0.0
  0
ELLIPSE
  5
B85
330
B77
100
AcDbEntity
  8
Visible (ANSI)
100
AcDbEllipse
 10
75.49105875330593
 20
48.45066012383411
 30
0.0
 11
0.2500000000000021
 21
-0.0000000000000007
 31
0.0
210
0.0
220
0.0
230
1.0
 40
0.1736481776669313
 41
4.712388980375591
 42
6.283185307160715
  0
ELLIPSE
  5
B86
330
B77
100
AcDbEntity
  8
Visible (ANSI)
100
AcDbEllipse
 10
75.49105875330592
 20
48.08135721645453
 30
0.0
 11
0.2499999999999995
 21
0.0000000000000003
 31
0.0
210
0.0
220
0.0
230
1.0
 40
0.1736481776669289
 41
4.712388980385292
 42
6.283185307170375
  0
ELLIPSE
  5
B87
330
B77
100
AcDbEntity
  8
Visible (ANSI)
100
AcDbEllipse
 10
72.99105875330593
 20
48.45066012383411
 30
0.0
 11
-0.2499999999999995
 21
0.0000000000000001
 31
0.0
210
0.0
220
0.0
230
1.0
 40
0.1736481776669299
 41
0.0
 42
1.570796326795499
  0
ELLIPSE
  5
B88
330
B77
100
AcDbEntity
  8
Visible (ANSI)
100
AcDbEllipse
 10
72.99105875330592
 20
48.08135721645453
 30
0.0
 11
-0.2500000000000005
 21
0.0000000000000001
 31
0.0
210
0.0
220
0.0
230
1.0
 40
0.1736481776669294
 41
0.0
 42
1.570796326785496
  0
LINE
  5
B89
330
B77
100
AcDbEntity
  8
Visible (ANSI)
100
AcDbLine
 10
96.74105875330594
 20
48.45066012383411
 30
0.0
 11
96.74105875330594
 21
48.46974807941737
 31
0.0
  0
LINE
  5
B8A
330
B77
100
AcDbEntity
  8
Visible (ANSI)
100
AcDbLine
 10
93.74105875330593
 20
48.46974807941737
 30
0.0
 11
93.74105875330595
 21
48.45066012383411
 31
0.0
  0
LINE
  5
B8B
330
B77
100
AcDbEntity
  8
Visible (ANSI)
100
AcDbLine
 10
96.49105875330604
 20
48.40724807941738
 30
0.0
 11
93.99105875330601
 21
48.40724807941738
 31
0.0
  0
LINE
  5
B8C
330
B77
100
AcDbEntity
  8
Visible (ANSI)
100
AcDbLine
 10
96.49105875330601
 20
48.0379451720378
 30
0.0
 11
93.99105875330601
 21
48.0379451720378
 31
0.0
  0
LINE
  5
B8D
330
B77
100
AcDbEntity
  8
Visible (ANSI)
100
AcDbLine
 10
96.74105875330594
 20
48.08135721645453
 30
0.0
 11
96.74105875330594
 21
48.45066012383411
 31
0.0
  0
LINE
  5
B8E
330
B77
100
AcDbEntity
  8
Visible (ANSI)
100
AcDbLine
 10
93.74105875330595
 20
48.45066012383411
 30
0.0
 11
93.74105875330593
 21
48.08135721645453
 31
0.0
  0
ELLIPSE
  5
B8F
330
B77
100
AcDbEntity
  8
Visible (ANSI)
100
AcDbEllipse
 10
96.49105875330594
 20
48.45066012383411
 30
0.0
 11
0.2500000000000021
 21
-0.0000000000000007
 31
0.0
210
0.0
220
0.0
230
1.0
 40
0.1736481776669313
 41
4.712388980375558
 42
6.283185307160715
  0
ELLIPSE
  5
B90
330
B77
100
AcDbEntity
  8
Visible (ANSI)
100
AcDbEllipse
 10
96.49105875330594
 20
48.08135721645453
 30
0.0
 11
0.2499999999999995
 21
0.0000000000000003
 31
0.0
210
0.0
220
0.0
230
1.0
 40
0.1736481776669289
 41
4.712388980385227
 42
6.283185307170182
  0
ELLIPSE
  5
B91
330
B77
100
AcDbEntity
  8
Visible (ANSI)
100
AcDbEllipse
 10
93.99105875330594
 20
48.45066012383411
 30
0.0
 11
-0.2499999999999995
 21
0.0000000000000001
 31
0.0
210
0.0
220
0.0
230
1.0
 40
0.1736481776669299
 41
0.0
 42
1.570796326795433
  0
ELLIPSE
  5
B92
330
B77
100
AcDbEntity
  8
Visible (ANSI)
100
AcDbEllipse
 10
93.99105875330594
 20
48.08135721645453
 30
0.0
 11
-0.2500000000000005
 21
0.0000000000000001
 31
0.0
210
0.0
220
0.0
230
1.0
 40
0.1736481776669294
 41
0.0
 42
1.570796326785496
  0
LINE
  5
B93
330
B77
100
AcDbEntity
  8
Visible (ANSI)
100
AcDbLine
 10
118.2410587533058
 20
48.14385721645454
 30
0.0
 11
118.2410587533059
 21
48.46974807941737
 31
0.0
  0
LINE
  5
B94
330
B77
100
AcDbEntity
  8
Visible (ANSI)
100
AcDbLine
 10
115.2410587533059
 20
48.46974807941737
 30
0.0
 11
115.2410587533058
 21
48.14385721645454
 31
0.0
  0
ELLIPSE
  5
B95
330
B77
100
AcDbEntity
  8
Visible (ANSI)
100
AcDbEllipse
 10
117.9910587533058
 20
48.14385721645454
 30
0.0
 11
0.2499999999999993
 21
0.0000000000000002
 31
0.0
210
0.0
220
0.0
230
1.0
 40
0.1736481776669278
 41
4.712388980385227
 42
6.283185307170182
  0
ELLIPSE
  5
B96
330
B77
100
AcDbEntity
  8
Visible (ANSI)
100
AcDbEllipse
 10
115.4910587533058
 20
48.14385721645454
 30
0.0
 11
-0.2500000000000004
 21
0.0000000000000001
 31
0.0
210
0.0
220
0.0
230
1.0
 40
0.1736481776669283
 41
0.0
 42
1.570796326785496
  0
LINE
  5
B97
330
B77
100
AcDbEntity
  8
Visible (ANSI)
100
AcDbLine
 10
117.9910587533059
 20
48.46974807941737
 30
0.0
 11
115.4910587533059
 21
48.46974807941737
 31
0.0
  0
LINE
  5
B98
330
B77
100
AcDbEntity
  8
Visible (ANSI)
100
AcDbLine
 10
117.9910587533059
 20
48.10044517203781
 30
0.0
 11
115.4910587533059
 21
48.10044517203781
 31
0.0
  0
LINE
  5
B99
330
B77
100
AcDbEntity
  8
Visible (ANSI)
100
AcDbLine
 10
54.24105875330585
 20
48.14385721645454
 30
0.0
 11
54.24105875330586
 21
48.46974807941737
 31
0.0
  0
LINE
  5
B9A
330
B77
100
AcDbEntity
  8
Visible (ANSI)
100
AcDbLine
 10
51.24105875330588
 20
48.46974807941737
 30
0.0
 11
51.24105875330585
 21
48.14385721645454
 31
0.0
  0
ELLIPSE
  5
B9B
330
B77
100
AcDbEntity
  8
Visible (ANSI)
100
AcDbEllipse
 10
53.99105875330586
 20
48.14385721645454
 30
0.0
 11
0.2499999999999995
 21
0.0000000000000003
 31
0.0
210
0.0
220
0.0
230
1.0
 40
0.1736481776669297
 41
4.712388980385292
 42
6.283185307170366
  0
ELLIPSE
  5
B9C
330
B77
100
AcDbEntity
  8
Visible (ANSI)
100
AcDbEllipse
 10
51.49105875330586
 20
48.14385721645454
 30
0.0
 11
-0.2500000000000005
 21
0.0000000000000001
 31
0.0
210
0.0
220
0.0
230
1.0
 40
0.1736481776669303
 41
0.0
 42
1.570796326785496
  0
LINE
  5
B9D
330
B77
100
AcDbEntity
  8
Visible (ANSI)
100
AcDbLine
 10
53.99105875330595
 20
48.46974807941737
 30
0.0
 11
51.49105875330595
 21
48.46974807941737
 31
0.0
  0
LINE
  5
B9E
330
B77
100
AcDbEntity
  8
Visible (ANSI)
100
AcDbLine
 10
53.99105875330593
 20
48.10044517203779
 30
0.0
 11
51.49105875330594
 21
48.10044517203779
 31
0.0
  0
LINE
  5
B9F
330
B77
100
AcDbEntity
  8
Visible (ANSI)
100
AcDbLine
 10
117.7410587533042
 20
33.69728056800144
 30
0.0
 11
117.7410587533043
 21
48.10044517203781
 31
0.0
  0
LINE
  5
BA0
330
B77
100
AcDbEntity
  8
Visible (ANSI)
100
AcDbLine
 10
115.7410587533043
 20
48.10044517203781
 30
0.0
 11
115.7410587533043
 21
33.69728056800143
 31
0.0
  0
LINE
  5
BA1
330
B77
100
AcDbEntity
  8
Visible (ANSI)
100
AcDbLine
 10
51.74105875330427
 20
48.10044517203779
 30
0.0
 11
51.74105875330428
 21
33.69728056800143
 31
0.0
  0
LINE
  5
BA2
330
B77
100
AcDbEntity
  8
Visible (ANSI)
100
AcDbLine
 10
53.74105875330427
 20
48.10044517203779
 30
0.0
 11
53.74105875330427
 21
33.69728056800144
 31
0.0
  0
LINE
  5
BA3
330
B77
100
AcDbEntity
  8
Visible (ANSI)
100
AcDbLine
 10
115.2410587533057
 20
33.57228056800146
 30
0.0
 11
115.4910587533058
 21
33.57228056800146
 31
0.0
  0
LINE
  5
BA4
330
B77
100
AcDbEntity
  8
Visible (ANSI)
100
AcDbLine
 10
117.9910587533058
 20
33.57228056800146
 30
0.0
 11
115.4910587533058
 21
33.57228056800146
 31
0.0
  0
LINE
  5
BA5
330
B77
100
AcDbEntity
  8
Visible (ANSI)
100
AcDbLine
 10
117.9910587533058
 20
33.57228056800146
 30
0.0
 11
118.2410587533057
 21
33.57228056800146
 31
0.0
  0
LINE
  5
BA6
330
B77
100
AcDbEntity
  8
Visible (ANSI)
100
AcDbLine
 10
115.4910587533058
 20
33.19728056800145
 30
0.0
 11
117.9910587533058
 21
33.19728056800145
 31
0.0
  0
LINE
  5
BA7
330
B77
100
AcDbEntity
  8
Visible (ANSI)
100
AcDbLine
 10
118.2410587533057
 20
33.19728056800145
 30
0.0
 11
117.9910587533058
 21
33.19728056800145
 31
0.0
  0
LINE
  5
BA8
330
B77
100
AcDbEntity
  8
Visible (ANSI)
100
AcDbLine
 10
118.2410587533057
 20
33.57228056800146
 30
0.0
 11
118.2410587533057
 21
33.19728056800145
 31
0.0
  0
LINE
  5
BA9
330
B77
100
AcDbEntity
  8
Visible (ANSI)
100
AcDbLine
 10
115.2410587533057
 20
33.57228056800146
 30
0.0
 11
115.2410587533057
 21
33.19728056800145
 31
0.0
  0
LINE
  5
BAA
330
B77
100
AcDbEntity
  8
Visible (ANSI)
100
AcDbLine
 10
115.4910587533058
 20
33.19728056800145
 30
0.0
 11
115.2410587533057
 21
33.19728056800145
 31
0.0
  0
LINE
  5
BAB
330
B77
100
AcDbEntity
  8
Visible (ANSI)
100
AcDbLine
 10
51.24105875330576
 20
33.57228056800144
 30
0.0
 11
51.49105875330583
 21
33.57228056800144
 31
0.0
  0
LINE
  5
BAC
330
B77
100
AcDbEntity
  8
Visible (ANSI)
100
AcDbLine
 10
53.99105875330583
 20
33.57228056800144
 30
0.0
 11
51.49105875330583
 21
33.57228056800144
 31
0.0
  0
LINE
  5
BAD
330
B77
100
AcDbEntity
  8
Visible (ANSI)
100
AcDbLine
 10
53.99105875330583
 20
33.57228056800144
 30
0.0
 11
54.24105875330575
 21
33.57228056800144
 31
0.0
  0
LINE
  5
BAE
330
B77
100
AcDbEntity
  8
Visible (ANSI)
100
AcDbLine
 10
51.49105875330583
 20
33.19728056800144
 30
0.0
 11
53.99105875330583
 21
33.19728056800144
 31
0.0
  0
LINE
  5
BAF
330
B77
100
AcDbEntity
  8
Visible (ANSI)
100
AcDbLine
 10
54.24105875330575
 20
33.19728056800144
 30
0.0
 11
53.99105875330583
 21
33.19728056800144
 31
0.0
  0
LINE
  5
BB0
330
B77
100
AcDbEntity
  8
Visible (ANSI)
100
AcDbLine
 10
54.24105875330575
 20
33.57228056800144
 30
0.0
 11
54.24105875330575
 21
33.19728056800144
 31
0.0
  0
LINE
  5
BB1
330
B77
100
AcDbEntity
  8
Visible (ANSI)
100
AcDbLine
 10
51.24105875330576
 20
33.57228056800144
 30
0.0
 11
51.24105875330576
 21
33.19728056800144
 31
0.0
  0
LINE
  5
BB2
330
B77
100
AcDbEntity
  8
Visible (ANSI)
100
AcDbLine
 10
51.49105875330583
 20
33.19728056800144
 30
0.0
 11
51.24105875330576
 21
33.19728056800144
 31
0.0
  0
ARC
  5
BB3
330
B77
100
AcDbEntity
  8
Visible (ANSI)
100
AcDbCircle
 10
115.6160587533039
 20
47.0097805680014
 30
0.0
 40
0.1249999999999996
100
AcDbArc
 50
270.0
 51
0.0
  0
LINE
  5
BB4
330
B77
100
AcDbEntity
  8
Visible (ANSI)
100
AcDbLine
 10
115.4910587533039
 20
46.88478056800142
 30
0.0
 11
115.6160587533039
 21
46.88478056800142
 31
0.0
  0
ARC
  5
BB5
330
B77
100
AcDbEntity
  8
Visible (ANSI)
100
AcDbCircle
 10
53.86605875330388
 20
47.00978056800144
 30
0.0
 40
0.1249999999999996
100
AcDbArc
 50
180.0
 51
270.0
  0
LINE
  5
BB6
330
B77
100
AcDbEntity
  8
Visible (ANSI)
100
AcDbLine
 10
53.86605875330388
 20
46.88478056800143
 30
0.0
 11
53.99105875330391
 21
46.88478056800143
 31
0.0
  0
LINE
  5
BB7
330
B77
100
AcDbEntity
  8
Visible (ANSI)
100
AcDbLine
 10
120.7410587533062
 20
49.94695970893568
 30
0.0
 11
120.7410587533055
 21
50.42449219751974
 31
0.0
  0
LINE
  5
BB8
330
B77
100
AcDbEntity
  8
Visible (ANSI)
100
AcDbLine
 10
120.7410587533062
 20
49.94695970893568
 30
0.0
 11
120.7410587533062
 21
48.46974807941737
 31
0.0
  0
LINE
  5
BB9
330
B77
100
AcDbEntity
  8
Visible (ANSI)
100
AcDbLine
 10
48.74105875330524
 20
50.42449219751974
 30
0.0
 11
48.74105875330603
 21
49.94695970893568
 31
0.0
  0
LINE
  5
BBA
330
B77
100
AcDbEntity
  8
Visible (ANSI)
100
AcDbLine
 10
120.7410587533062
 20
49.94695970893568
 30
0.0
 11
48.74105875330603
 21
49.94695970893568
 31
0.0
  0
LINE
  5
BBB
330
B77
100
AcDbEntity
  8
Visible (ANSI)
100
AcDbLine
 10
48.74105875330524
 20
50.42449219751974
 30
0.0
 11
120.7410587533055
 21
50.42449219751974
 31
0.0
  0
LINE
  5
BBC
330
B77
100
AcDbEntity
  8
Visible (ANSI)
100
AcDbLine
 10
48.74105875330595
 20
48.46974807941737
 30
0.0
 11
48.74105875330603
 21
49.94695970893568
 31
0.0
  0
LINE
  5
BBD
330
B77
100
AcDbEntity
  8
Visible (ANSI)
100
AcDbLine
 10
120.7410587533062
 20
48.46974807941737
 30
0.0
 11
48.74105875330597
 21
48.46974807941737
 31
0.0
  0
LINE
  5
BBE
330
B77
100
AcDbEntity
  8
Visible (ANSI)
100
AcDbLine
 10
120.741058753305
 20
50.42449219751974
 30
0.0
 11
120.741058753305
 21
50.44728056800143
 31
0.0
  0
LINE
  5
BBF
330
B77
100
AcDbEntity
  8
Visible (ANSI)
100
AcDbLine
 10
48.7410587533051
 20
50.44728056800143
 30
0.0
 11
120.741058753305
 21
50.44728056800143
 31
0.0
  0
LINE
  5
BC0
330
B77
100
AcDbEntity
  8
Visible (ANSI)
100
AcDbLine
 10
48.7410587533051
 20
50.44728056800143
 30
0.0
 11
48.7410587533051
 21
50.42449219751974
 31
0.0
  0
LINE
  5
BC1
330
B77
100
AcDbEntity
  8
Visible (ANSI)
100
AcDbLine
 10
115.4910587533039
 20
47.0097805680014
 30
0.0
 11
115.7410587533039
 21
47.0097805680014
 31
0.0
  0
LINE
  5
BC2
330
B77
100
AcDbEntity
  8
Visible (ANSI)
100
AcDbLine
 10
115.5878941492679
 20
48.10044517203781
 30
0.0
 11
115.7410587533042
 21
47.94728056800145
 31
0.0
  0
LINE
  5
BC3
330
B77
100
AcDbEntity
  8
Visible (ANSI)
100
AcDbLine
 10
117.7410587533043
 20
33.69728056800143
 30
0.0
 11
117.8660587533043
 21
33.57228056800142
 31
0.0
  0
LINE
  5
BC4
330
B77
100
AcDbEntity
  8
Visible (ANSI)
100
AcDbLine
 10
115.7410587533042
 20
33.69728056800143
 30
0.0
 11
115.6160587533042
 21
33.57228056800142
 31
0.0
  0
LINE
  5
BC5
330
B77
100
AcDbEntity
  8
Visible (ANSI)
100
AcDbLine
 10
115.7410587533042
 20
33.69728056800144
 30
0.0
 11
115.9910587533043
 21
33.69728056800144
 31
0.0
  0
LINE
  5
BC6
330
B77
100
AcDbEntity
  8
Visible (ANSI)
100
AcDbLine
 10
117.4910587533043
 20
33.69728056800143
 30
0.0
 11
115.9910587533043
 21
33.69728056800143
 31
0.0
  0
LINE
  5
BC7
330
B77
100
AcDbEntity
  8
Visible (ANSI)
100
AcDbLine
 10
117.4910587533043
 20
33.69728056800144
 30
0.0
 11
117.7410587533042
 21
33.69728056800144
 31
0.0
  0
LINE
  5
BC8
330
B77
100
AcDbEntity
  8
Visible (ANSI)
100
AcDbLine
 10
53.99105875330389
 20
47.00978056800142
 30
0.0
 11
53.74105875330396
 21
47.00978056800142
 31
0.0
  0
LINE
  5
BC9
330
B77
100
AcDbEntity
  8
Visible (ANSI)
100
AcDbLine
 10
53.89422335734059
 20
48.10044517203779
 30
0.0
 11
53.74105875330425
 21
47.94728056800144
 31
0.0
  0
LINE
  5
BCA
330
B77
100
AcDbEntity
  8
Visible (ANSI)
100
AcDbLine
 10
51.74105875330427
 20
33.69728056800145
 30
0.0
 11
51.6160587533043
 21
33.57228056800144
 31
0.0
  0
LINE
  5
BCB
330
B77
100
AcDbEntity
  8
Visible (ANSI)
100
AcDbLine
 10
51.74105875330427
 20
33.69728056800145
 30
0.0
 11
51.99105875330435
 21
33.69728056800145
 31
0.0
  0
LINE
  5
BCC
330
B77
100
AcDbEntity
  8
Visible (ANSI)
100
AcDbLine
 10
53.49105875330436
 20
33.69728056800145
 30
0.0
 11
51.99105875330435
 21
33.69728056800145
 31
0.0
  0
LINE
  5
BCD
330
B77
100
AcDbEntity
  8
Visible (ANSI)
100
AcDbLine
 10
53.74105875330428
 20
33.69728056800145
 30
0.0
 11
53.86605875330428
 21
33.57228056800144
 31
0.0
  0
LINE
  5
BCE
330
B77
100
AcDbEntity
  8
Visible (ANSI)
100
AcDbLine
 10
53.49105875330436
 20
33.69728056800145
 30
0.0
 11
53.74105875330427
 21
33.69728056800145
 31
0.0
  0
ENDBLK
  5
B79
330
B77
100
AcDbEntity
  8
0
100
AcDbBlockEnd
  0
BLOCK
  5
BD1
330
BD0
100
AcDbEntity
  8
0
100
AcDbBlockBegin
  2
PBS-6-TOP VIEW
 70
     0
 10
0.0
 20
0.0
 30
0.0
  3
PBS-6-TOP VIEW
  1

  0
LINE
  5
BD3
330
BD0
100
AcDbEntity
  8
Visible (ANSI)
100
AcDbLine
 10
75.74105875329331
 20
82.53226956446553
 30
0.0
 11
75.74105875329333
 21
82.47188920007131
 31
0.0
  0
LINE
  5
BD4
330
BD0
100
AcDbEntity
  8
Visible (ANSI)
100
AcDbLine
 10
75.74105875329334
 20
82.47188920007127
 30
0.0
 11
75.74105875329339
 21
82.3418530668211
 31
0.0
  0
LINE
  5
BD5
330
BD0
100
AcDbEntity
  8
Visible (ANSI)
100
AcDbLine
 10
72.74105875329334
 20
82.4718892000704
 30
0.0
 11
72.74105875329333
 21
82.53226956446464
 31
0.0
  0
LINE
  5
BD6
330
BD0
100
AcDbEntity
  8
Visible (ANSI)
100
AcDbLine
 10
72.74105875329333
 20
82.47188920007037
 30
0.0
 11
72.74105875329337
 21
82.3418530668202
 31
0.0
  0
LINE
  5
BD7
330
BD0
100
AcDbEntity
  8
Visible (ANSI)
100
AcDbLine
 10
75.74105875329552
 20
75.15103656917664
 30
0.0
 11
75.74105875329545
 21
75.3414530668211
 31
0.0
  0
LINE
  5
BD8
330
BD0
100
AcDbEntity
  8
Visible (ANSI)
100
AcDbLine
 10
75.74105875329445
 20
78.7166530668211
 30
0.0
 11
75.74105875329436
 21
78.96665306682109
 31
0.0
  0
LINE
  5
BD9
330
BD0
100
AcDbEntity
  8
Visible (ANSI)
100
AcDbLine
 10
72.74105875329436
 20
78.9666530668202
 30
0.0
 11
72.74105875329445
 21
78.71665306682022
 31
0.0
  0
LINE
  5
BDA
330
BD0
100
AcDbEntity
  8
Visible (ANSI)
100
AcDbLine
 10
72.74105875329545
 20
75.3414530668202
 30
0.0
 11
72.74105875329552
 21
75.15103656917577
 31
0.0
  0
LINE
  5
BDB
330
BD0
100
AcDbEntity
  8
Visible (ANSI)
100
AcDbLine
 10
96.74105875329331
 20
82.53226956447177
 30
0.0
 11
96.74105875329331
 21
82.47188920007754
 31
0.0
  0
LINE
  5
BDC
330
BD0
100
AcDbEntity
  8
Visible (ANSI)
100
AcDbLine
 10
96.74105875329331
 20
82.47188920007753
 30
0.0
 11
96.74105875329338
 21
82.34185306682734
 31
0.0
  0
LINE
  5
BDD
330
BD0
100
AcDbEntity
  8
Visible (ANSI)
100
AcDbLine
 10
93.7410587532933
 20
82.47188920007664
 30
0.0
 11
93.7410587532933
 21
82.53226956447091
 31
0.0
  0
LINE
  5
BDE
330
BD0
100
AcDbEntity
  8
Visible (ANSI)
100
AcDbLine
 10
93.74105875329334
 20
82.47188920007664
 30
0.0
 11
93.74105875329339
 21
82.34185306682645
 31
0.0
  0
LINE
  5
BDF
330
BD0
100
AcDbEntity
  8
Visible (ANSI)
100
AcDbLine
 10
96.74105875329551
 20
75.15103656918289
 30
0.0
 11
96.74105875329544
 21
75.34145306682734
 31
0.0
  0
LINE
  5
BE0
330
BD0
100
AcDbEntity
  8
Visible (ANSI)
100
AcDbLine
 10
96.74105875329443
 20
78.71665306682735
 30
0.0
 11
96.74105875329438
 21
78.96665306682734
 31
0.0
  0
LINE
  5
BE1
330
BD0
100
AcDbEntity
  8
Visible (ANSI)
100
AcDbLine
 10
93.74105875329435
 20
78.96665306682645
 30
0.0
 11
93.74105875329446
 21
78.71665306682645
 31
0.0
  0
LINE
  5
BE2
330
BD0
100
AcDbEntity
  8
Visible (ANSI)
100
AcDbLine
 10
93.74105875329544
 20
75.34145306682645
 30
0.0
 11
93.74105875329552
 21
75.15103656918201
 31
0.0
  0
LINE
  5
BE3
330
BD0
100
AcDbEntity
  8
Visible (ANSI)
100
AcDbLine
 10
118.2410587532933
 20
82.53226956447818
 30
0.0
 11
118.2410587532933
 21
82.46665306683368
 31
0.0
  0
LINE
  5
BE4
330
BD0
100
AcDbEntity
  8
Visible (ANSI)
100
AcDbLine
 10
115.2410587532933
 20
82.53226956447731
 30
0.0
 11
115.2410587532933
 21
82.46665306683281
 31
0.0
  0
LINE
  5
BE5
330
BD0
100
AcDbEntity
  8
Visible (ANSI)
100
AcDbLine
 10
118.2410587532954
 20
75.2166530668337
 30
0.0
 11
118.2410587532954
 21
75.34145306683374
 31
0.0
  0
LINE
  5
BE6
330
BD0
100
AcDbEntity
  8
Visible (ANSI)
100
AcDbLine
 10
118.2410587532944
 20
78.71665306683373
 30
0.0
 11
118.2410587532944
 21
78.96665306683373
 31
0.0
  0
LINE
  5
BE7
330
BD0
100
AcDbEntity
  8
Visible (ANSI)
100
AcDbLine
 10
118.2410587532933
 20
82.34185306683375
 30
0.0
 11
118.2410587532933
 21
82.46665306683368
 31
0.0
  0
LINE
  5
BE8
330
BD0
100
AcDbEntity
  8
Visible (ANSI)
100
AcDbLine
 10
115.2410587532933
 20
82.46665306683281
 30
0.0
 11
115.2410587532934
 21
82.34185306683285
 31
0.0
  0
LINE
  5
BE9
330
BD0
100
AcDbEntity
  8
Visible (ANSI)
100
AcDbLine
 10
115.2410587532944
 20
78.96665306683286
 30
0.0
 11
115.2410587532944
 21
78.71665306683285
 31
0.0
  0
LINE
  5
BEA
330
BD0
100
AcDbEntity
  8
Visible (ANSI)
100
AcDbLine
 10
115.2410587532954
 20
75.34145306683284
 30
0.0
 11
115.2410587532955
 21
75.21665306683281
 31
0.0
  0
LINE
  5
BEB
330
BD0
100
AcDbEntity
  8
Visible (ANSI)
100
AcDbLine
 10
118.2410587532955
 20
75.15103656918928
 30
0.0
 11
118.2410587532954
 21
75.2166530668337
 31
0.0
  0
LINE
  5
BEC
330
BD0
100
AcDbEntity
  8
Visible (ANSI)
100
AcDbLine
 10
115.2410587532955
 20
75.1510365691884
 30
0.0
 11
115.2410587532955
 21
75.21665306683281
 31
0.0
  0
LINE
  5
BED
330
BD0
100
AcDbEntity
  8
Visible (ANSI)
100
AcDbLine
 10
54.24105875329329
 20
82.53226956445919
 30
0.0
 11
54.24105875329331
 21
82.46665306681475
 31
0.0
  0
LINE
  5
BEE
330
BD0
100
AcDbEntity
  8
Visible (ANSI)
100
AcDbLine
 10
51.2410587532933
 20
82.53226956445828
 30
0.0
 11
51.24105875329332
 21
82.46665306681384
 31
0.0
  0
LINE
  5
BEF
330
BD0
100
AcDbEntity
  8
Visible (ANSI)
100
AcDbLine
 10
54.24105875329548
 20
75.21665306681474
 30
0.0
 11
54.24105875329543
 21
75.34145306681473
 31
0.0
  0
LINE
  5
BF0
330
BD0
100
AcDbEntity
  8
Visible (ANSI)
100
AcDbLine
 10
54.24105875329444
 20
78.71665306681475
 30
0.0
 11
54.24105875329436
 21
78.96665306681474
 31
0.0
  0
LINE
  5
BF1
330
BD0
100
AcDbEntity
  8
Visible (ANSI)
100
AcDbLine
 10
54.24105875329336
 20
82.34185306681473
 30
0.0
 11
54.24105875329331
 21
82.46665306681475
 31
0.0
  0
LINE
  5
BF2
330
BD0
100
AcDbEntity
  8
Visible (ANSI)
100
AcDbLine
 10
51.24105875329332
 20
82.46665306681384
 30
0.0
 11
51.24105875329338
 21
82.34185306681384
 31
0.0
  0
LINE
  5
BF3
330
BD0
100
AcDbEntity
  8
Visible (ANSI)
100
AcDbLine
 10
51.24105875329436
 20
78.96665306681384
 30
0.0
 11
51.24105875329444
 21
78.71665306681385
 31
0.0
  0
LINE
  5
BF4
330
BD0
100
AcDbEntity
  8
Visible (ANSI)
100
AcDbLine
 10
51.24105875329544
 20
75.34145306681384
 30
0.0
 11
51.24105875329547
 21
75.21665306681384
 31
0.0
  0
LINE
  5
BF5
330
BD0
100
AcDbEntity
  8
Visible (ANSI)
100
AcDbLine
 10
54.24105875329549
 20
75.15103656917029
 30
0.0
 11
54.24105875329548
 21
75.21665306681474
 31
0.0
  0
LINE
  5
BF6
330
BD0
100
AcDbEntity
  8
Visible (ANSI)
100
AcDbLine
 10
51.2410587532955
 20
75.15103656916939
 30
0.0
 11
51.24105875329547
 21
75.21665306681384
 31
0.0
  0
LINE
  5
BF7
330
BD0
100
AcDbEntity
  8
Visible (ANSI)
100
AcDbLine
 10
120.7410587532958
 20
74.89056430269005
 30
0.0
 11
120.7410587532957
 21
75.15103656918999
 31
0.0
  0
LINE
  5
BF8
330
BD0
100
AcDbEntity
  8
Visible (ANSI)
100
AcDbLine
 10
120.7410587532966
 20
72.18234298190634
 30
0.0
 11
120.7410587532958
 21
74.89056430269005
 31
0.0
  0
LINE
  5
BF9
330
BD0
100
AcDbEntity
  8
Visible (ANSI)
100
AcDbLine
 10
120.7410587532966
 20
72.18234298190634
 30
0.0
 11
120.7410587532967
 21
71.68549018119552
 31
0.0
  0
LINE
  5
BFA
330
BD0
100
AcDbEntity
  8
Visible (ANSI)
100
AcDbLine
 10
48.74105875329558
 20
74.89056430266868
 30
0.0
 11
48.7410587532964
 21
72.182342981885
 31
0.0
  0
LINE
  5
BFB
330
BD0
100
AcDbEntity
  8
Visible (ANSI)
100
AcDbLine
 10
120.7410587532966
 20
72.18234298190634
 30
0.0
 11
48.7410587532964
 21
72.182342981885
 31
0.0
  0
LINE
  5
BFC
330
BD0
100
AcDbEntity
  8
Visible (ANSI)
100
AcDbLine
 10
48.74105875329558
 20
74.89056430266868
 30
0.0
 11
120.7410587532958
 21
74.89056430269005
 31
0.0
  0
LINE
  5
BFD
330
BD0
100
AcDbEntity
  8
Visible (ANSI)
100
AcDbLine
 10
48.74105875329654
 20
71.68549018117417
 30
0.0
 11
48.7410587532964
 21
72.182342981885
 31
0.0
  0
LINE
  5
BFE
330
BD0
100
AcDbEntity
  8
Visible (ANSI)
100
AcDbLine
 10
120.7410587532957
 20
75.15103656918999
 30
0.0
 11
48.74105875329551
 21
75.15103656916865
 31
0.0
  0
LINE
  5
BFF
330
BD0
100
AcDbEntity
  8
Visible (ANSI)
100
AcDbLine
 10
48.74105875329551
 20
75.15103656916865
 30
0.0
 11
48.74105875329558
 21
74.89056430266868
 31
0.0
  0
LINE
  5
C00
330
BD0
100
AcDbEntity
  8
Visible (ANSI)
100
AcDbLine
 10
120.7410587532968
 20
71.68549018119552
 30
0.0
 11
48.74105875329654
 21
71.68549018117416
 31
0.0
  0
LINE
  5
C01
330
BD0
100
AcDbEntity
  8
Visible (ANSI)
100
AcDbLine
 10
120.7410587532932
 20
82.79274183097976
 30
0.0
 11
120.7410587532924
 21
85.50096315176316
 31
0.0
  0
LINE
  5
C02
330
BD0
100
AcDbEntity
  8
Visible (ANSI)
100
AcDbLine
 10
120.7410587532933
 20
82.53226956447894
 30
0.0
 11
120.7410587532932
 21
82.79274183097976
 31
0.0
  0
LINE
  5
C03
330
BD0
100
AcDbEntity
  8
Visible (ANSI)
100
AcDbLine
 10
120.7410587532923
 20
85.9978159524736
 30
0.0
 11
120.7410587532924
 21
85.50096315176316
 31
0.0
  0
LINE
  5
C04
330
BD0
100
AcDbEntity
  8
Visible (ANSI)
100
AcDbLine
 10
48.7410587532933
 20
82.53226956445756
 30
0.0
 11
120.7410587532933
 21
82.53226956447894
 31
0.0
  0
LINE
  5
C05
330
BD0
100
AcDbEntity
  8
Visible (ANSI)
100
AcDbLine
 10
48.74105875329242
 20
85.50096315174183
 30
0.0
 11
48.74105875329227
 21
85.99781595245223
 31
0.0
  0
LINE
  5
C06
330
BD0
100
AcDbEntity
  8
Visible (ANSI)
100
AcDbLine
 10
120.7410587532924
 20
85.50096315176316
 30
0.0
 11
48.74105875329242
 21
85.50096315174183
 31
0.0
  0
LINE
  5
C07
330
BD0
100
AcDbEntity
  8
Visible (ANSI)
100
AcDbLine
 10
48.74105875329242
 20
85.50096315174183
 30
0.0
 11
48.74105875329322
 21
82.79274183095841
 31
0.0
  0
LINE
  5
C08
330
BD0
100
AcDbEntity
  8
Visible (ANSI)
100
AcDbLine
 10
120.7410587532932
 20
82.79274183097976
 30
0.0
 11
48.74105875329322
 21
82.79274183095841
 31
0.0
  0
LINE
  5
C09
330
BD0
100
AcDbEntity
  8
Visible (ANSI)
100
AcDbLine
 10
48.74105875329322
 20
82.79274183095841
 30
0.0
 11
48.7410587532933
 21
82.53226956445756
 31
0.0
  0
LINE
  5
C0A
330
BD0
100
AcDbEntity
  8
Visible (ANSI)
100
AcDbLine
 10
120.7410587532923
 20
85.9978159524736
 30
0.0
 11
48.74105875329227
 21
85.99781595245223
 31
0.0
  0
LINE
  5
C0B
330
BD0
100
AcDbEntity
  8
Visible (ANSI)
100
AcDbLine
 10
120.7410587532954
 20
75.3414530668349
 30
0.0
 11
120.7410587532944
 21
78.71665306683492
 31
0.0
  0
LINE
  5
C0C
330
BD0
100
AcDbEntity
  8
Visible (ANSI)
100
AcDbLine
 10
48.74105875329446
 20
78.71665306681356
 30
0.0
 11
120.7410587532944
 21
78.71665306683492
 31
0.0
  0
LINE
  5
C0D
330
BD0
100
AcDbEntity
  8
Visible (ANSI)
100
AcDbLine
 10
48.74105875329446
 20
78.71665306681356
 30
0.0
 11
48.74105875329544
 21
75.34145306681357
 31
0.0
  0
LINE
  5
C0E
330
BD0
100
AcDbEntity
  8
Visible (ANSI)
100
AcDbLine
 10
48.74105875329544
 20
75.34145306681357
 30
0.0
 11
120.7410587532954
 21
75.3414530668349
 31
0.0
  0
LINE
  5
C0F
330
BD0
100
AcDbEntity
  8
Visible (ANSI)
100
AcDbLine
 10
120.7410587532943
 20
78.96665306683492
 30
0.0
 11
120.7410587532933
 21
82.34185306683492
 31
0.0
  0
LINE
  5
C10
330
BD0
100
AcDbEntity
  8
Visible (ANSI)
100
AcDbLine
 10
48.74105875329338
 20
82.34185306681354
 30
0.0
 11
120.7410587532933
 21
82.34185306683492
 31
0.0
  0
LINE
  5
C11
330
BD0
100
AcDbEntity
  8
Visible (ANSI)
100
AcDbLine
 10
48.74105875329338
 20
82.34185306681354
 30
0.0
 11
48.74105875329436
 21
78.96665306681356
 31
0.0
  0
LINE
  5
C12
330
BD0
100
AcDbEntity
  8
Visible (ANSI)
100
AcDbLine
 10
48.74105875329436
 20
78.96665306681356
 30
0.0
 11
120.7410587532943
 21
78.96665306683492
 31
0.0
  0
LINE
  5
C13
330
BD0
100
AcDbEntity
  8
Visible (ANSI)
100
AcDbLine
 10
75.92855875329437
 20
78.96665306682105
 30
0.0
 11
75.92855875329445
 21
78.71665306682105
 31
0.0
  0
LINE
  5
C14
330
BD0
100
AcDbEntity
  8
Visible (ANSI)
100
AcDbLine
 10
72.55355875329446
 20
78.71665306682004
 30
0.0
 11
72.55355875329437
 21
78.96665306682006
 31
0.0
  0
LINE
  5
C15
330
BD0
100
AcDbEntity
  8
Visible (ANSI)
100
AcDbLine
 10
96.92855875329437
 20
78.96665306682729
 30
0.0
 11
96.92855875329446
 21
78.71665306682728
 31
0.0
  0
LINE
  5
C16
330
BD0
100
AcDbEntity
  8
Visible (ANSI)
100
AcDbLine
 10
93.55355875329449
 20
78.71665306682626
 30
0.0
 11
93.55355875329436
 21
78.96665306682628
 31
0.0
  0
ENDBLK
  5
BD2
330
BD0
100
AcDbEntity
  8
0
100
AcDbBlockEnd
  0
ENDSEC
  0
SECTION
  2
ENTITIES
  0
INSERT
  5
B76
330
75
100
AcDbEntity
  8
0
100
AcDbBlockReference
  2
PBS-6-SIDE VIEW
 10
0.0
 20
0.0
 30
0.0
  0
INSERT
  5
BCF
330
75
100
AcDbEntity
  8
0
100
AcDbBlockReference
  2
PBS-6-FRONT VIEW
 10
0.0
 20
0.0
 30
0.0
  0
INSERT
  5
C17
330
75
100
AcDbEntity
  8
0
100
AcDbBlockReference
  2
PBS-6-TOP VIEW
 10
0.0
 20
0.0
 30
0.0
  0
MTEXT
  5
C1A
102
{ACAD_XDICTIONARY
360
C1F
102
}
330
75
100
AcDbEntity
  8
0
100
AcDbMText
 10
8.269548733662077
 20
28.51376620029439
 30
0.0
 40
2.0
 41
19.77715282805348
 46
8.102158744914598
 71
     1
 72
     5
  1
\pi5.2219;PBS-6\P\pi1.2219;SIDE VIEW
 73
     1
 44
1.0
  0
MTEXT
  5
C1B
102
{ACAD_XDICTIONARY
360
C21
102
}
330
75
100
AcDbEntity
  8
0
100
AcDbMText
 10
76.26528421250458
 20
28.51376620029439
 30
0.0
 40
2.0
 41
25.99282944580597
 46
8.102158744914598
 71
     1
 72
     5
  1
\pi8.3297;PBS-6\P\pi2.9964;FRONT VIEW
 73
     1
 44
1.0
  0
MTEXT
  5
C1D
102
{ACAD_XDICTIONARY
360
C23
102
}
330
75
100
AcDbEntity
  8
0
100
AcDbMText
 10
76.26528421250458
 20
68.98104808803743
 30
0.0
 40
2.0
 41
19.77715282805348
 46
8.102158744914598
 71
     1
 72
     5
  1
\pi5.2219;PBS-6\P\pi1.8886;TOP VIEW
 73
     1
 44
1.0
  0
ENDSEC
  0
SECTION
  2
OBJECTS
  0
DICTIONARY
  5
C
330
0
100
AcDbDictionary
281
     1
  3
ACAD_COLOR
350
6B
  3
ACAD_GROUP
350
D
  3
ACAD_LAYOUT
350
6A
  3
ACAD_MATERIAL
350
10
  3
ACAD_MLEADERSTYLE
350
6E
  3
ACAD_MLINESTYLE
350
67
  3
ACAD_PLOTSETTINGS
350
69
  3
ACAD_PLOTSTYLENAME
350
E
  3
ACAD_SCALELIST
350
3A
  3
ACAD_TABLESTYLE
350
6C
  3
ACAD_VISUALSTYLE
350
29
  3
ACDB_RECOMPOSE_DATA
350
A74
  3
AcDbVariableDictionary
350
A36
  3
AcmDictionary
350
AED
  3
AMG
350
A93
  3
AMGSNAPSETTINGS
350
B2C
  0
DICTIONARY
  5
C1F
330
C1A
100
AcDbDictionary
280
     1
281
     1
  3
ACAD_MTEXT_2008_RT
360
C20
  0
DICTIONARY
  5
C21
330
C1B
100
AcDbDictionary
280
     1
281
     1
  3
ACAD_MTEXT_2008_RT
360
C22
  0
DICTIONARY
  5
C23
330
C1D
100
AcDbDictionary
280
     1
281
     1
  3
ACAD_MTEXT_2008_RT
360
C24
  0
DICTIONARY
  5
6B
102
{ACAD_REACTORS
330
C
102
}
330
C
100
AcDbDictionary
281
     1
  0
DICTIONARY
  5
D
102
{ACAD_REACTORS
330
C
102
}
330
C
100
AcDbDictionary
281
     1
  0
DICTIONARY
  5
6A
102
{ACAD_REACTORS
330
C
102
}
330
C
100
AcDbDictionary
281
     1
  3
Layout1
350
74
  3
Layout2
350
7C
  3
Model
350
78
  0
DICTIONARY
  5
10
102
{ACAD_REACTORS
330
C
102
}
330
C
100
AcDbDictionary
281
     1
  3
ByBlock
350
19
  3
ByLayer
350
11
  3
Global
350
21
  0
DICTIONARY
  5
6E
102
{ACAD_REACTORS
330
C
102
}
330
C
100
AcDbDictionary
281
     1
  3
Standard
350
6F
  0
DICTIONARY
  5
67
102
{ACAD_REACTORS
330
C
102
}
330
C
100
AcDbDictionary
281
     1
  3
Standard
350
68
  0
DICTIONARY
  5
69
102
{ACAD_REACTORS
330
C
102
}
330
C
100
AcDbDictionary
281
     1
  0
ACDBDICTIONARYWDFLT
  5
E
102
{ACAD_REACTORS
330
C
102
}
330
C
100
AcDbDictionary
281
     1
  3
Normal
350
F
100
AcDbDictionaryWithDefault
340
F
  0
DICTIONARY
  5
3A
102
{ACAD_REACTORS
330
C
102
}
330
C
100
AcDbDictionary
281
     1
  3
A0
350
3B
  3
A1
350
3C
  3
A2
350
3D
  3
A3
350
3E
  3
A4
350
3F
  3
A5
350
40
  3
A6
350
41
  3
A7
350
42
  3
A8
350
43
  3
A9
350
44
  3
B0
350
45
  3
B1
350
46
  3
B2
350
47
  3
B3
350
48
  3
B4
350
49
  3
B5
350
4A
  3
B6
350
4B
  3
B7
350
4C
  3
B8
350
4D
  3
B9
350
4E
  3
C0
350
4F
  3
C1
350
50
  3
C2
350
51
  3
C3
350
52
  3
C4
350
53
  3
C5
350
54
  3
C6
350
55
  3
C7
350
56
  3
C8
350
57
  3
C9
350
58
  3
D0
350
59
  3
D1
350
5A
  3
D2
350
5B
  0
DICTIONARY
  5
6C
102
{ACAD_REACTORS
330
C
102
}
330
C
100
AcDbDictionary
281
     1
  3
Standard
350
6D
  0
DICTIONARY
  5
29
102
{ACAD_REACTORS
330
C
102
}
330
C
100
AcDbDictionary
281
     1
  3
2dWireframe
350
2F
  3
3D Hidden
350
31
  3
3dWireframe
350
30
  3
Basic
350
2E
  3
Brighten
350
35
  3
ColorChange
350
39
  3
Conceptual
350
32
  3
Dim
350
34
  3
Facepattern
350
38
  3
Flat
350
2A
  3
FlatWithEdges
350
2B
  3
Gouraud
350
2C
  3
GouraudWithEdges
350
2D
  3
Linepattern
350
37
  3
Realistic
350
33
  3
Thicken
350
36
  0
XRECORD
  5
A74
102
{ACAD_REACTORS
330
C
102
}
330
C
100
AcDbXrecord
280
     1
 90
        1
330
6D
330
C1A
330
C1B
330
C1D
  0
DICTIONARY
  5
A36
102
{ACAD_REACTORS
330
C
102
}
330
C
100
AcDbDictionary
281
     1
  3
CANNOSCALE
350
A3A
  3
CMLEADERSTYLE
350
A38
  3
CTABLESTYLE
350
A37
  3
LAYEREVAL
350
A3C
  3
LAYERNOTIFY
350
A3D
  3
LIGHTINGUNITS
350
A3B
  3
MSLTSCALE
350
A39
  0
DICTIONARY
  5
AED
102
{ACAD_REACTORS
330
C
102
}
330
C
100
AcDbDictionary
281
     1
  3
AcmStdDictionary
350
AFA
  0
DICTIONARY
  5
A93
102
{ACAD_REACTORS
330
C
102
}
330
C
100
AcDbDictionary
281
     1
  0
DICTIONARY
  5
B2C
102
{ACAD_REACTORS
330
C
102
}
330
C
100
AcDbDictionary
281
     1
  0
XRECORD
  5
C20
102
{ACAD_REACTORS
330
C1F
102
}
330
C1F
100
AcDbXrecord
280
     1
 40
45327.0
  1
\pxqc;PBS-6\PSIDE VIEW
  0
XRECORD
  5
C22
102
{ACAD_REACTORS
330
C21
102
}
330
C21
100
AcDbXrecord
280
     1
 40
49277.0
  1
\pxqc;PBS-6\PFRONT VIEW
  0
XRECORD
  5
C24
102
{ACAD_REACTORS
330
C23
102
}
330
C23
100
AcDbXrecord
280
     1
 40
43782.0
  1
\pxqc;PBS-6\PTOP VIEW
  0
LAYOUT
  5
74
102
{ACAD_REACTORS
330
6A
102
}
330
6A
100
AcDbPlotSettings
  1

  2

  4

  6

 40
0.0
 41
0.0
 42
0.0
 43
0.0
 44
0.0
 45
0.0
 46
0.0
 47
0.0
 48
0.0
 49
0.0
140
0.0
141
0.0
142
1.0
143
1.0
 70
   688
 72
     0
 73
     0
 74
     5
  7

 75
    16
147
1.0
 76
     0
 77
     2
 78
   300
148
0.0
149
0.0
100
AcDbLayout
  1
Layout1
 70
     1
 71
     1
 10
0.0
 20
0.0
 11
132.0
 21
102.0
 12
0.0
 22
0.0
 32
0.0
 14
0.0
 24
0.0
 34
0.0
 15
132.0
 25
102.0
 35
0.0
146
0.0
 13
0.0
 23
0.0
 33
0.0
 16
1.0
 26
0.0
 36
0.0
 17
0.0
 27
1.0
 37
0.0
 76
     0
330
71
  0
LAYOUT
  5
7C
102
{ACAD_REACTORS
330
6A
102
}
330
6A
100
AcDbPlotSettings
  1

  2

  4

  6

 40
0.0
 41
0.0
 42
0.0
 43
0.0
 44
0.0
 45
0.0
 46
0.0
 47
0.0
 48
0.0
 49
0.0
140
0.0
141
0.0
142
1.0
143
1.0
 70
   688
 72
     0
 73
     0
 74
     5
  7

 75
    16
147
1.0
 76
     0
 77
     2
 78
   300
148
0.0
149
0.0
100
AcDbLayout
  1
Layout2
 70
     1
 71
     2
 10
0.0
 20
0.0
 11
12.0
 21
9.0
 12
0.0
 22
0.0
 32
0.0
 14
0.0
 24
0.0
 34
0.0
 15
0.0
 25
0.0
 35
0.0
146
0.0
 13
0.0
 23
0.0
 33
0.0
 16
1.0
 26
0.0
 36
0.0
 17
0.0
 27
1.0
 37
0.0
 76
     0
330
79
  0
LAYOUT
  5
78
102
{ACAD_REACTORS
330
6A
102
}
330
6A
100
AcDbPlotSettings
  1

  2

  4

  6

 40
0.0
 41
0.0
 42
0.0
 43
0.0
 44
0.0
 45
0.0
 46
0.0
 47
0.0
 48
0.0
 49
0.0
140
0.0
141
0.0
142
1.0
143
1.0
 70
  1712
 72
     0
 73
     0
 74
     0
  7

 75
     0
147
1.0
 76
     0
 77
     2
 78
   300
148
0.0
149
0.0
100
AcDbLayout
  1
Model
 70
     1
 71
     0
 10
0.0
 20
0.0
 11
12.0
 21
9.0
 12
0.0
 22
0.0
 32
0.0
 14
0.0
 24
0.0
 34
0.0
 15
0.0
 25
0.0
 35
0.0
146
0.0
 13
0.0
 23
0.0
 33
0.0
 16
1.0
 26
0.0
 36
0.0
 17
0.0
 27
1.0
 37
0.0
 76
     0
330
75
331
5F
  0
MATERIAL
  5
19
102
{ACAD_XDICTIONARY
360
1A
102
}
102
{ACAD_REACTORS
330
10
102
}
330
10
100
AcDbMaterial
  1
ByBlock
 72
     0
 43
0.0208333333333333
 43
0.0
 43
0.0
 43
0.0
 43
0.0
 43
0.0208333333333333
 43
0.0
 43
0.0
 43
0.0
 43
0.0
 43
1.0
 43
0.0
 43
0.0
 43
0.0
 43
0.0
 43
1.0
 77
     0
 47
0.0208333333333333
 47
0.0
 47
0.0
 47
0.0
 47
0.0
 47
0.0208333333333333
 47
0.0
 47
0.0
 47
0.0
 47
0.0
 47
1.0
 47
0.0
 47
0.0
 47
0.0
 47
0.0
 47
1.0
171
     0
 49
0.0208333333333333
 49
0.0
 49
0.0
 49
0.0
 49
0.0
 49
0.0208333333333333
 49
0.0
 49
0.0
 49
0.0
 49
0.0
 49
1.0
 49
0.0
 49
0.0
 49
0.0
 49
0.0
 49
1.0
175
     0
142
0.0208333333333333
142
0.0
142
0.0
142
0.0
142
0.0
142
0.0208333333333333
142
0.0
142
0.0
142
0.0
142
0.0
142
1.0
142
0.0
142
0.0
142
0.0
142
0.0
142
1.0
179
     0
144
0.0208333333333333
144
0.0
144
0.0
144
0.0
144
0.0
144
0.0208333333333333
144
0.0
144
0.0
144
0.0
144
0.0
144
1.0
144
0.0
144
0.0
144
0.0
144
0.0
144
1.0
147
0.0208333333333333
147
0.0
147
0.0
147
0.0
147
0.0
147
0.0208333333333333
147
0.0
147
0.0
147
0.0
147
0.0
147
1.0
147
0.0
147
0.0
147
0.0
147
0.0
147
1.0
  0
MATERIAL
  5
11
102
{ACAD_XDICTIONARY
360
12
102
}
102
{ACAD_REACTORS
330
10
102
}
330
10
100
AcDbMaterial
  1
ByLayer
 72
     0
 43
0.0208333333333333
 43
0.0
 43
0.0
 43
0.0
 43
0.0
 43
0.0208333333333333
 43
0.0
 43
0.0
 43
0.0
 43
0.0
 43
1.0
 43
0.0
 43
0.0
 43
0.0
 43
0.0
 43
1.0
 77
     0
 47
0.0208333333333333
 47
0.0
 47
0.0
 47
0.0
 47
0.0
 47
0.0208333333333333
 47
0.0
 47
0.0
 47
0.0
 47
0.0
 47
1.0
 47
0.0
 47
0.0
 47
0.0
 47
0.0
 47
1.0
171
     0
 49
0.0208333333333333
 49
0.0
 49
0.0
 49
0.0
 49
0.0
 49
0.0208333333333333
 49
0.0
 49
0.0
 49
0.0
 49
0.0
 49
1.0
 49
0.0
 49
0.0
 49
0.0
 49
0.0
 49
1.0
175
     0
142
0.0208333333333333
142
0.0
142
0.0
142
0.0
142
0.0
142
0.0208333333333333
142
0.0
142
0.0
142
0.0
142
0.0
142
1.0
142
0.0
142
0.0
142
0.0
142
0.0
142
1.0
179
     0
144
0.0208333333333333
144
0.0
144
0.0
144
0.0
144
0.0
144
0.0208333333333333
144
0.0
144
0.0
144
0.0
144
0.0
144
1.0
144
0.0
144
0.0
144
0.0
144
0.0
144
1.0
147
0.0208333333333333
147
0.0
147
0.0
147
0.0
147
0.0
147
0.0208333333333333
147
0.0
147
0.0
147
0.0
147
0.0
147
1.0
147
0.0
147
0.0
147
0.0
147
0.0
147
1.0
  0
MATERIAL
  5
21
102
{ACAD_XDICTIONARY
360
22
102
}
102
{ACAD_REACTORS
330
10
102
}
330
10
100
AcDbMaterial
  1
Global
 72
     0
 43
0.0208333333333333
 43
0.0
 43
0.0
 43
0.0
 43
0.0
 43
0.0208333333333333
 43
0.0
 43
0.0
 43
0.0
 43
0.0
 43
1.0
 43
0.0
 43
0.0
 43
0.0
 43
0.0
 43
1.0
 77
     0
 47
0.0208333333333333
 47
0.0
 47
0.0
 47
0.0
 47
0.0
 47
0.0208333333333333
 47
0.0
 47
0.0
 47
0.0
 47
0.0
 47
1.0
 47
0.0
 47
0.0
 47
0.0
 47
0.0
 47
1.0
171
     0
 49
0.0208333333333333
 49
0.0
 49
0.0
 49
0.0
 49
0.0
 49
0.0208333333333333
 49
0.0
 49
0.0
 49
0.0
 49
0.0
 49
1.0
 49
0.0
 49
0.0
 49
0.0
 49
0.0
 49
1.0
175
     0
142
0.0208333333333333
142
0.0
142
0.0
142
0.0
142
0.0
142
0.0208333333333333
142
0.0
142
0.0
142
0.0
142
0.0
142
1.0
142
0.0
142
0.0
142
0.0
142
0.0
142
1.0
179
     0
144
0.0208333333333333
144
0.0
144
0.0
144
0.0
144
0.0
144
0.0208333333333333
144
0.0
144
0.0
144
0.0
144
0.0
144
1.0
144
0.0
144
0.0
144
0.0
144
0.0
144
1.0
147
0.0208333333333333
147
0.0
147
0.0
147
0.0
147
0.0
147
0.0208333333333333
147
0.0
147
0.0
147
0.0
147
0.0
147
1.0
147
0.0
147
0.0
147
0.0
147
0.0
147
1.0
  0
MLEADERSTYLE
  5
6F
102
{ACAD_REACTORS
330
6E
102
}
330
6E
100
AcDbMLeaderStyle
170
     2
171
     1
172
     0
 90
        2
 40
0.0
 41
0.0
173
     1
 91
-1056964608
340
63
 92
       -2
290
     1
 42
0.09
291
     1
 43
0.36
  3
Standard
 44
0.18
300

342
5D
174
     1
178
     6
175
     1
176
     0
 93
-1056964608
 45
0.18
292
     0
297
     0
 46
0.18
 94
-1056964608
 47
1.0
 49
1.0
140
1.0
293
     1
141
0.0
294
     1
177
     0
142
1.0
295
     0
296
     0
143
0.125
1001
ACAD_MLEADERVER
1070
     2
  0
MLINESTYLE
  5
68
102
{ACAD_REACTORS
330
67
102
}
330
67
100
AcDbMlineStyle
  2
STANDARD
 70
     0
  3

 62
   256
 51
90.0
 52
90.0
 71
     2
 49
0.5
 62
   256
  6
BYLAYER
 49
-0.5
 62
   256
  6
BYLAYER
  0
ACDBPLACEHOLDER
  5
F
102
{ACAD_REACTORS
330
E
102
}
330
E
  0
SCALE
  5
3B
102
{ACAD_REACTORS
330
3A
102
}
330
3A
100
AcDbScale
 70
     0
300
1:1
140
1.0
141
1.0
290
     1
  0
SCALE
  5
3C
102
{ACAD_REACTORS
330
3A
102
}
330
3A
100
AcDbScale
 70
     0
300
1:2
140
1.0
141
2.0
290
     0
  0
SCALE
  5
3D
102
{ACAD_REACTORS
330
3A
102
}
330
3A
100
AcDbScale
 70
     0
300
1:4
140
1.0
141
4.0
290
     0
  0
SCALE
  5
3E
102
{ACAD_REACTORS
330
3A
102
}
330
3A
100
AcDbScale
 70
     0
300
1:5
140
1.0
141
5.0
290
     0
  0
SCALE
  5
3F
102
{ACAD_REACTORS
330
3A
102
}
330
3A
100
AcDbScale
 70
     0
300
1:8
140
1.0
141
8.0
290
     0
  0
SCALE
  5
40
102
{ACAD_REACTORS
330
3A
102
}
330
3A
100
AcDbScale
 70
     0
300
1:10
140
1.0
141
10.0
290
     0
  0
SCALE
  5
41
102
{ACAD_REACTORS
330
3A
102
}
330
3A
100
AcDbScale
 70
     0
300
1:16
140
1.0
141
16.0
290
     0
  0
SCALE
  5
42
102
{ACAD_REACTORS
330
3A
102
}
330
3A
100
AcDbScale
 70
     0
300
1:20
140
1.0
141
20.0
290
     0
  0
SCALE
  5
43
102
{ACAD_REACTORS
330
3A
102
}
330
3A
100
AcDbScale
 70
     0
300
1:30
140
1.0
141
30.0
290
     0
  0
SCALE
  5
44
102
{ACAD_REACTORS
330
3A
102
}
330
3A
100
AcDbScale
 70
     0
300
1:40
140
1.0
141
40.0
290
     0
  0
SCALE
  5
45
102
{ACAD_REACTORS
330
3A
102
}
330
3A
100
AcDbScale
 70
     0
300
1:50
140
1.0
141
50.0
290
     0
  0
SCALE
  5
46
102
{ACAD_REACTORS
330
3A
102
}
330
3A
100
AcDbScale
 70
     0
300
1:100
140
1.0
141
100.0
290
     0
  0
SCALE
  5
47
102
{ACAD_REACTORS
330
3A
102
}
330
3A
100
AcDbScale
 70
     0
300
2:1
140
2.0
141
1.0
290
     0
  0
SCALE
  5
48
102
{ACAD_REACTORS
330
3A
102
}
330
3A
100
AcDbScale
 70
     0
300
4:1
140
4.0
141
1.0
290
     0
  0
SCALE
  5
49
102
{ACAD_REACTORS
330
3A
102
}
330
3A
100
AcDbScale
 70
     0
300
8:1
140
8.0
141
1.0
290
     0
  0
SCALE
  5
4A
102
{ACAD_REACTORS
330
3A
102
}
330
3A
100
AcDbScale
 70
     0
300
10:1
140
10.0
141
1.0
290
     0
  0
SCALE
  5
4B
102
{ACAD_REACTORS
330
3A
102
}
330
3A
100
AcDbScale
 70
     0
300
100:1
140
100.0
141
1.0
290
     0
  0
SCALE
  5
4C
102
{ACAD_REACTORS
330
3A
102
}
330
3A
100
AcDbScale
 70
     0
300
1/128" = 1'-0"
140
0.0078125
141
12.0
290
     0
  0
SCALE
  5
4D
102
{ACAD_REACTORS
330
3A
102
}
330
3A
100
AcDbScale
 70
     0
300
1/64" = 1'-0"
140
0.015625
141
12.0
290
     0
  0
SCALE
  5
4E
102
{ACAD_REACTORS
330
3A
102
}
330
3A
100
AcDbScale
 70
     0
300
1/32" = 1'-0"
140
0.03125
141
12.0
290
     0
  0
SCALE
  5
4F
102
{ACAD_REACTORS
330
3A
102
}
330
3A
100
AcDbScale
 70
     0
300
1/16" = 1'-0"
140
0.0625
141
12.0
290
     0
  0
SCALE
  5
50
102
{ACAD_REACTORS
330
3A
102
}
330
3A
100
AcDbScale
 70
     0
300
3/32" = 1'-0"
140
0.09375
141
12.0
290
     0
  0
SCALE
  5
51
102
{ACAD_REACTORS
330
3A
102
}
330
3A
100
AcDbScale
 70
     0
300
1/8" = 1'-0"
140
0.125
141
12.0
290
     0
  0
SCALE
  5
52
102
{ACAD_REACTORS
330
3A
102
}
330
3A
100
AcDbScale
 70
     0
300
3/16" = 1'-0"
140
0.1875
141
12.0
290
     0
  0
SCALE
  5
53
102
{ACAD_REACTORS
330
3A
102
}
330
3A
100
AcDbScale
 70
     0
300
1/4" = 1'-0"
140
0.25
141
12.0
290
     0
  0
SCALE
  5
54
102
{ACAD_REACTORS
330
3A
102
}
330
3A
100
AcDbScale
 70
     0
300
3/8" = 1'-0"
140
0.375
141
12.0
290
     0
  0
SCALE
  5
55
102
{ACAD_REACTORS
330
3A
102
}
330
3A
100
AcDbScale
 70
     0
300
1/2" = 1'-0"
140
0.5
141
12.0
290
     0
  0
SCALE
  5
56
102
{ACAD_REACTORS
330
3A
102
}
330
3A
100
AcDbScale
 70
     0
300
3/4" = 1'-0"
140
0.75
141
12.0
290
     0
  0
SCALE
  5
57
102
{ACAD_REACTORS
330
3A
102
}
330
3A
100
AcDbScale
 70
     0
300
1" = 1'-0"
140
1.0
141
12.0
290
     0
  0
SCALE
  5
58
102
{ACAD_REACTORS
330
3A
102
}
330
3A
100
AcDbScale
 70
     0
300
1-1/2" = 1'-0"
140
1.5
141
12.0
290
     0
  0
SCALE
  5
59
102
{ACAD_REACTORS
330
3A
102
}
330
3A
100
AcDbScale
 70
     0
300
3" = 1'-0"
140
3.0
141
12.0
290
     0
  0
SCALE
  5
5A
102
{ACAD_REACTORS
330
3A
102
}
330
3A
100
AcDbScale
 70
     0
300
6" = 1'-0"
140
6.0
141
12.0
290
     0
  0
SCALE
  5
5B
102
{ACAD_REACTORS
330
3A
102
}
330
3A
100
AcDbScale
 70
     0
300
1'-0" = 1'-0"
140
12.0
141
12.0
290
     0
  0
TABLESTYLE
  5
6D
102
{ACAD_XDICTIONARY
360
A3E
102
}
102
{ACAD_REACTORS
330
6C
102
}
330
6C
100
AcDbTableStyle
  3
Standard
 70
     0
 71
     0
 40
0.06
 41
0.06
280
     0
281
     0
  7
Standard
140
0.18
170
     2
 62
     0
 63
     7
283
     0
 90
      512
 91
        0
  1

274
    -2
284
     1
 64
     0
275
    -2
285
     1
 65
     0
276
    -2
286
     1
 66
     0
277
    -2
287
     1
 67
     0
278
    -2
288
     1
 68
     0
279
    -2
289
     1
 69
     0
  7
Standard
140
0.25
170
     5
 62
     0
 63
     7
283
     0
 90
      512
 91
        0
  1

274
    -2
284
     1
 64
     0
275
    -2
285
     1
 65
     0
276
    -2
286
     1
 66
     0
277
    -2
287
     1
 67
     0
278
    -2
288
     1
 68
     0
279
    -2
289
     1
 69
     0
  7
Standard
140
0.18
170
     5
 62
     0
 63
     7
283
     0
 90
      512
 91
        0
  1

274
    -2
284
     1
 64
     0
275
    -2
285
     1
 65
     0
276
    -2
286
     1
 66
     0
277
    -2
287
     1
 67
     0
278
    -2
288
     1
 68
     0
279
    -2
289
     1
 69
     0
  0
VISUALSTYLE
  5
2F
102
{ACAD_REACTORS
330
29
102
}
330
29
100
AcDbVisualStyle
  2
2dWireframe
 70
     4
 71
     0
 72
     2
 73
     0
 90
        0
 40
-0.6
 41
-30.0
 62
     5
 63
     7
421
 16777215
 74
     1
 91
        4
 64
     7
 65
   257
 75
     1
175
     1
 42
1.0
 92
        0
 66
   257
 43
1.0
 76
     1
 77
     6
 78
     2
 67
     7
 79
     5
170
     0
171
     0
290
     0
174
     0
 93
        1
 44
0.0
173
     0
291
     0
 45
0.0
1001
ACAD
1000
AcDbSavedByObjectVersion
1070
     0
  0
VISUALSTYLE
  5
31
102
{ACAD_REACTORS
330
29
102
}
330
29
100
AcDbVisualStyle
  2
3D Hidden
 70
     6
 71
     1
 72
     2
 73
     2
 90
        0
 40
-0.6
 41
-30.0
 62
     5
 63
     7
421
 16777215
 74
     2
 91
        2
 64
     7
 65
   257
 75
     2
175
     1
 42
40.0
 92
        0
 66
   257
 43
1.0
 76
     1
 77
     6
 78
     2
 67
     7
 79
     3
170
     0
171
     0
290
     0
174
     0
 93
        1
 44
0.0
173
     0
291
     0
 45
0.0
1001
ACAD
1000
AcDbSavedByObjectVersion
1070
     0
  0
VISUALSTYLE
  5
30
102
{ACAD_REACTORS
330
29
102
}
330
29
100
AcDbVisualStyle
  2
3dWireframe
 70
     5
 71
     0
 72
     2
 73
     0
 90
        0
 40
-0.6
 41
-30.0
 62
     5
 63
     7
421
 16777215
 74
     1
 91
        4
 64
     7
 65
   257
 75
     1
175
     1
 42
1.0
 92
        0
 66
   257
 43
1.0
 76
     1
 77
     6
 78
     2
 67
     7
 79
     5
170
     0
171
     0
290
     0
174
     0
 93
        1
 44
0.0
173
     0
291
     0
 45
0.0
1001
ACAD
1000
AcDbSavedByObjectVersion
1070
     0
  0
VISUALSTYLE
  5
2E
102
{ACAD_REACTORS
330
29
102
}
330
29
100
AcDbVisualStyle
  2
Basic
 70
     7
 71
     1
 72
     0
 73
     1
 90
        0
 40
-0.6
 41
-30.0
 62
     5
 63
     7
421
 16777215
 74
     0
 91
        4
 64
     7
 65
   257
 75
     1
175
     1
 42
1.0
 92
        8
 66
     7
 43
1.0
 76
     1
 77
     6
 78
     2
 67
     7
 79
     5
170
     0
171
     0
290
     0
174
     0
 93
        1
 44
0.0
173
     0
291
     1
 45
0.0
1001
ACAD
1000
AcDbSavedByObjectVersion
1070
     0
  0
VISUALSTYLE
  5
35
102
{ACAD_REACTORS
330
29
102
}
330
29
100
AcDbVisualStyle
  2
Brighten
 70
    12
 71
     2
 72
     2
 73
     0
 90
        0
 40
-0.6
 41
-30.0
 62
     5
 63
     7
421
 16777215
 74
     1
 91
        4
 64
     7
 65
   257
 75
     1
175
     1
 42
1.0
 92
        8
 66
     7
 43
1.0
 76
     1
 77
     6
 78
     2
 67
     7
 79
     5
170
     0
171
     0
290
     0
174
     0
 93
        1
 44
50.0
173
     0
291
     1
 45
0.0
1001
ACAD
1000
AcDbSavedByObjectVersion
1070
     0
  0
VISUALSTYLE
  5
39
102
{ACAD_REACTORS
330
29
102
}
330
29
100
AcDbVisualStyle
  2
ColorChange
 70
    16
 71
     2
 72
     2
 73
     3
 90
        0
 40
-0.6
 41
-30.0
 62
     5
 63
     8
421
  8421504
 74
     1
 91
        4
 64
     7
 65
   257
 75
     1
175
     1
 42
1.0
 92
        8
 66
     8
424
  8421504
 43
1.0
 76
     1
 77
     6
 78
     2
 67
     7
 79
     5
170
     0
171
     0
290
     0
174
     0
 93
        1
 44
0.0
173
     0
291
     1
 45
0.0
1001
ACAD
1000
AcDbSavedByObjectVersion
1070
     0
  0
VISUALSTYLE
  5
32
102
{ACAD_REACTORS
330
29
102
}
330
29
100
AcDbVisualStyle
  2
Conceptual
 70
     9
 71
     3
 72
     2
 73
     0
 90
        0
 40
-0.6
 41
-30.0
 62
     5
 63
     7
421
 16777215
 74
     2
 91
        2
 64
     7
 65
   257
 75
     1
175
     1
 42
40.0
 92
        8
 66
     7
 43
1.0
 76
     1
 77
     6
 78
     2
 67
     7
 79
     3
170
     0
171
     0
290
     0
174
     0
 93
        1
 44
0.0
173
     0
291
     0
 45
0.0
1001
ACAD
1000
AcDbSavedByObjectVersion
1070
     0
  0
VISUALSTYLE
  5
34
102
{ACAD_REACTORS
330
29
102
}
330
29
100
AcDbVisualStyle
  2
Dim
 70
    11
 71
     2
 72
     2
 73
     0
 90
        0
 40
-0.6
 41
-30.0
 62
     5
 63
     7
421
 16777215
 74
     1
 91
        4
 64
     7
 65
   257
 75
     1
175
     1
 42
1.0
 92
        8
 66
     7
 43
1.0
 76
     1
 77
     6
 78
     2
 67
     7
 79
     5
170
     0
171
     0
290
     0
174
     0
 93
        1
 44
-50.0
173
     0
291
     1
 45
0.0
1001
ACAD
1000
AcDbSavedByObjectVersion
1070
     0
  0
VISUALSTYLE
  5
38
102
{ACAD_REACTORS
330
29
102
}
330
29
100
AcDbVisualStyle
  2
Facepattern
 70
    15
 71
     2
 72
     2
 73
     0
 90
        0
 40
-0.6
 41
-30.0
 62
     5
 63
     7
421
 16777215
 74
     1
 91
        4
 64
     7
 65
   257
 75
     1
175
     1
 42
1.0
 92
        8
 66
     7
 43
1.0
 76
     1
 77
     6
 78
     2
 67
     7
 79
     5
170
     0
171
     0
290
     0
174
     0
 93
        1
 44
0.0
173
     0
291
     1
 45
0.0
1001
ACAD
1000
AcDbSavedByObjectVersion
1070
     0
  0
VISUALSTYLE
  5
2A
102
{ACAD_REACTORS
330
29
102
}
330
29
100
AcDbVisualStyle
  2
Flat
 70
     0
 71
     2
 72
     1
 73
     1
 90
        2
 40
-0.6
 41
30.0
 62
     5
 63
     7
421
 16777215
 74
     0
 91
        4
 64
     7
 65
   257
 75
     1
175
     1
 42
1.0
 92
        8
 66
     7
 43
1.0
 76
     1
 77
     6
 78
     2
 67
     7
 79
     5
170
     0
171
     0
290
     0
174
     0
 93
       13
 44
0.0
173
     0
291
     1
 45
0.0
1001
ACAD
1000
AcDbSavedByObjectVersion
1070
     0
  0
VISUALSTYLE
  5
2B
102
{ACAD_REACTORS
330
29
102
}
330
29
100
AcDbVisualStyle
  2
FlatWithEdges
 70
     1
 71
     2
 72
     1
 73
     1
 90
        2
 40
-0.6
 41
30.0
 62
     5
 63
     7
421
 16777215
 74
     1
 91
        4
 64
     7
 65
   257
 75
     1
175
     1
 42
1.0
 92
        0
 66
   257
 43
1.0
 76
     1
 77
     6
 78
     2
 67
     7
 79
     5
170
     0
171
     0
290
     0
174
     0
 93
       13
 44
0.0
173
     0
291
     1
 45
0.0
1001
ACAD
1000
AcDbSavedByObjectVersion
1070
     0
  0
VISUALSTYLE
  5
2C
102
{ACAD_REACTORS
330
29
102
}
330
29
100
AcDbVisualStyle
  2
Gouraud
 70
     2
 71
     2
 72
     2
 73
     1
 90
        2
 40
-0.6
 41
30.0
 62
     5
 63
     7
421
 16777215
 74
     0
 91
        4
 64
     7
 65
   257
 75
     1
175
     1
 42
1.0
 92
        0
 66
     7
 43
1.0
 76
     1
 77
     6
 78
     2
 67
     7
 79
     5
170
     0
171
     0
290
     0
174
     0
 93
       13
 44
0.0
173
     0
291
     1
 45
0.0
1001
ACAD
1000
AcDbSavedByObjectVersion
1070
     0
  0
VISUALSTYLE
  5
2D
102
{ACAD_REACTORS
330
29
102
}
330
29
100
AcDbVisualStyle
  2
GouraudWithEdges
 70
     3
 71
     2
 72
     2
 73
     1
 90
        2
 40
-0.6
 41
30.0
 62
     5
 63
     7
421
 16777215
 74
     1
 91
        4
 64
     7
 65
   257
 75
     1
175
     1
 42
1.0
 92
        0
 66
   257
 43
1.0
 76
     1
 77
     6
 78
     2
 67
     7
 79
     5
170
     0
171
     0
290
     0
174
     0
 93
       13
 44
0.0
173
     0
291
     1
 45
0.0
1001
ACAD
1000
AcDbSavedByObjectVersion
1070
     0
  0
VISUALSTYLE
  5
37
102
{ACAD_REACTORS
330
29
102
}
330
29
100
AcDbVisualStyle
  2
Linepattern
 70
    14
 71
     2
 72
     2
 73
     0
 90
        0
 40
-0.6
 41
-30.0
 62
     5
 63
     7
421
 16777215
 74
     1
 91
        4
 64
     7
 65
   257
 75
     7
175
     7
 42
1.0
 92
        8
 66
     7
 43
1.0
 76
     1
 77
     6
 78
     2
 67
     7
 79
     5
170
     0
171
     0
290
     0
174
     0
 93
        1
 44
0.0
173
     0
291
     1
 45
0.0
1001
ACAD
1000
AcDbSavedByObjectVersion
1070
     0
  0
VISUALSTYLE
  5
33
102
{ACAD_REACTORS
330
29
102
}
330
29
100
AcDbVisualStyle
  2
Realistic
 70
     8
 71
     2
 72
     2
 73
     0
 90
        0
 40
-0.6
 41
-30.0
 62
     5
 63
     7
421
 16777215
 74
     1
 91
        0
 64
     7
 65
   257
 75
     1
175
     1
 42
1.0
 92
        8
 66
     8
424
  7895160
 43
1.0
 76
     1
 77
     6
 78
     2
 67
     7
 79
     5
170
     0
171
     0
290
     0
174
     0
 93
       13
 44
0.0
173
     0
291
     0
 45
0.0
1001
ACAD
1000
AcDbSavedByObjectVersion
1070
     0
  0
VISUALSTYLE
  5
36
102
{ACAD_REACTORS
330
29
102
}
330
29
100
AcDbVisualStyle
  2
Thicken
 70
    13
 71
     2
 72
     2
 73
     0
 90
        0
 40
-0.6
 41
-30.0
 62
     5
 63
     7
421
 16777215
 74
     1
 91
        4
 64
     7
 65
   257
 75
     1
175
     1
 42
1.0
 92
       12
 66
     7
 43
1.0
 76
     1
 77
     6
 78
     2
 67
     7
 79
     5
170
     0
171
     0
290
     0
174
     0
 93
        1
 44
0.0
173
     0
291
     1
 45
0.0
1001
ACAD
1000
AcDbSavedByObjectVersion
1070
     0
  0
DICTIONARYVAR
  5
A3A
102
{ACAD_REACTORS
330
A36
102
}
330
A36
100
DictionaryVariables
280
     0
  1
1:1
  0
DICTIONARYVAR
  5
A38
102
{ACAD_REACTORS
330
A36
102
}
330
A36
100
DictionaryVariables
280
     0
  1
STANDARD
  0
DICTIONARYVAR
  5
A37
102
{ACAD_REACTORS
330
A36
102
}
330
A36
100
DictionaryVariables
280
     0
  1
STANDARD
  0
DICTIONARYVAR
  5
A3C
102
{ACAD_REACTORS
330
A36
102
}
330
A36
100
DictionaryVariables
280
     0
  1
0
  0
DICTIONARYVAR
  5
A3D
102
{ACAD_REACTORS
330
A36
102
}
330
A36
100
DictionaryVariables
280
     0
  1
0
  0
DICTIONARYVAR
  5
A3B
102
{ACAD_REACTORS
330
A36
102
}
330
A36
100
DictionaryVariables
280
     0
  1
2
  0
DICTIONARYVAR
  5
A39
102
{ACAD_REACTORS
330
A36
102
}
330
A36
100
DictionaryVariables
280
     0
  1
1
  0
DICTIONARY
  5
AFA
102
{ACAD_REACTORS
330
AED
102
}
330
AED
100
AcDbDictionary
281
     1
  0
DICTIONARY
  5
1A
330
19
100
AcDbDictionary
280
     1
281
     1
  3
ACAD_XREC_ROUNDTRIP
360
A76
  3
BUMPTILE
360
1C
  3
DIFFUSETILE
360
1B
  3
OPACITYTILE
360
1F
  3
REFLECTIONTILE
360
1E
  3
REFRACTIONTILE
360
20
  3
SPECULARTILE
360
1D
  0
DICTIONARY
  5
12
330
11
100
AcDbDictionary
280
     1
281
     1
  3
ACAD_XREC_ROUNDTRIP
360
A75
  3
BUMPTILE
360
14
  3
DIFFUSETILE
360
13
  3
OPACITYTILE
360
17
  3
REFLECTIONTILE
360
16
  3
REFRACTIONTILE
360
18
  3
SPECULARTILE
360
15
  0
DICTIONARY
  5
22
330
21
100
AcDbDictionary
280
     1
281
     1
  3
ACAD_XREC_ROUNDTRIP
360
A77
  3
BUMPTILE
360
24
  3
DIFFUSETILE
360
23
  3
OPACITYTILE
360
27
  3
REFLECTIONTILE
360
26
  3
REFRACTIONTILE
360
28
  3
SPECULARTILE
360
25
  0
DICTIONARY
  5
A3E
330
6D
100
AcDbDictionary
280
     1
281
     1
  3
ACAD_ROUNDTRIP_2008_TABLESTYLE_CELLSTYLEMAP
360
C1E
  0
XRECORD
  5
A76
102
{ACAD_REACTORS
330
1A
102
}
330
1A
100
AcDbXrecord
280
     1
102
MATERIAL
148
0.0
149
0.0
149
0.0
 93
        0
 94
      127
282
     0
 72
     0
 77
     0
171
     0
175
     0
179
     0
273
     0
  0
XRECORD
  5
1C
102
{ACAD_REACTORS
330
1A
102
}
330
1A
100
AcDbXrecord
280
     1
270
     1
271
     1
  0
XRECORD
  5
1B
102
{ACAD_REACTORS
330
1A
102
}
330
1A
100
AcDbXrecord
280
     1
270
     1
271
     1
  0
XRECORD
  5
1F
102
{ACAD_REACTORS
330
1A
102
}
330
1A
100
AcDbXrecord
280
     1
270
     1
271
     1
  0
XRECORD
  5
1E
102
{ACAD_REACTORS
330
1A
102
}
330
1A
100
AcDbXrecord
280
     1
270
     1
271
     1
  0
XRECORD
  5
20
102
{ACAD_REACTORS
330
1A
102
}
330
1A
100
AcDbXrecord
280
     1
270
     1
271
     1
  0
XRECORD
  5
1D
102
{ACAD_REACTORS
330
1A
102
}
330
1A
100
AcDbXrecord
280
     1
270
     1
271
     1
  0
XRECORD
  5
A75
102
{ACAD_REACTORS
330
12
102
}
330
12
100
AcDbXrecord
280
     1
102
MATERIAL
148
0.0
149
0.0
149
0.0
 93
        0
 94
      127
282
     0
 72
     0
 77
     0
171
     0
175
     0
179
     0
273
     0
  0
XRECORD
  5
14
102
{ACAD_REACTORS
330
12
102
}
330
12
100
AcDbXrecord
280
     1
270
     1
271
     1
  0
XRECORD
  5
13
102
{ACAD_REACTORS
330
12
102
}
330
12
100
AcDbXrecord
280
     1
270
     1
271
     1
  0
XRECORD
  5
17
102
{ACAD_REACTORS
330
12
102
}
330
12
100
AcDbXrecord
280
     1
270
     1
271
     1
  0
XRECORD
  5
16
102
{ACAD_REACTORS
330
12
102
}
330
12
100
AcDbXrecord
280
     1
270
     1
271
     1
  0
XRECORD
  5
18
102
{ACAD_REACTORS
330
12
102
}
330
12
100
AcDbXrecord
280
     1
270
     1
271
     1
  0
XRECORD
  5
15
102
{ACAD_REACTORS
330
12
102
}
330
12
100
AcDbXrecord
280
     1
270
     1
271
     1
  0
XRECORD
  5
A77
102
{ACAD_REACTORS
330
22
102
}
330
22
100
AcDbXrecord
280
     1
102
MATERIAL
148
0.0
149
0.0
149
0.0
 93
        0
 94
      127
282
     0
 72
     0
 77
     0
171
     0
175
     0
179
     0
273
     0
  0
XRECORD
  5
24
102
{ACAD_REACTORS
330
22
102
}
330
22
100
AcDbXrecord
280
     1
270
     1
271
     1
  0
XRECORD
  5
23
102
{ACAD_REACTORS
330
22
102
}
330
22
100
AcDbXrecord
280
     1
270
     1
271
     1
  0
XRECORD
  5
27
102
{ACAD_REACTORS
330
22
102
}
330
22
100
AcDbXrecord
280
     1
270
     1
271
     1
  0
XRECORD
  5
26
102
{ACAD_REACTORS
330
22
102
}
330
22
100
AcDbXrecord
280
     1
270
     1
271
     1
  0
XRECORD
  5
28
102
{ACAD_REACTORS
330
22
102
}
330
22
100
AcDbXrecord
280
     1
270
     1
271
     1
  0
XRECORD
  5
25
102
{ACAD_REACTORS
330
22
102
}
330
22
100
AcDbXrecord
280
     1
270
     1
271
     1
  0
CELLSTYLEMAP
  5
C1E
102
{ACAD_REACTORS
330
A3E
102
}
330
A3E
100
AcDbCellStyleMap
 90
        3
300
CELLSTYLE
  1
TABLEFORMAT_BEGIN
 90
        5
170
     1
 91
        0
 92
    32768
 62
   257
 93
        1
300
CONTENTFORMAT
  1
CONTENTFORMAT_BEGIN
 90
        0
 91
        0
 92
      512
 93
        0
300

 40
0.0
140
1.0
 94
        5
 62
     0
340
5D
144
0.25
309
CONTENTFORMAT_END
171
     1
301
MARGIN
  1
CELLMARGIN_BEGIN
 40
0.06
 40
0.06
 40
0.06
 40
0.06
 40
0.18
 40
0.18
309
CELLMARGIN_END
 94
        6
 95
        1
302
GRIDFORMAT
  1
GRIDFORMAT_BEGIN
 90
        0
 91
        1
 62
     0
 92
       -2
340
0
 93
        0
 40
0.045
309
GRIDFORMAT_END
 95
        2
302
GRIDFORMAT
  1
GRIDFORMAT_BEGIN
 90
        0
 91
        1
 62
     0
 92
       -2
340
0
 93
        0
 40
0.045
309
GRIDFORMAT_END
 95
        4
302
GRIDFORMAT
  1
GRIDFORMAT_BEGIN
 90
        0
 91
        1
 62
     0
 92
       -2
340
0
 93
        0
 40
0.045
309
GRIDFORMAT_END
 95
        8
302
GRIDFORMAT
  1
GRIDFORMAT_BEGIN
 90
        0
 91
        1
 62
     0
 92
       -2
340
0
 93
        0
 40
0.045
309
GRIDFORMAT_END
 95
       16
302
GRIDFORMAT
  1
GRIDFORMAT_BEGIN
 90
        0
 91
        1
 62
     0
 92
       -2
340
0
 93
        0
 40
0.045
309
GRIDFORMAT_END
 95
       32
302
GRIDFORMAT
  1
GRIDFORMAT_BEGIN
 90
        0
 91
        1
 62
     0
 92
       -2
340
0
 93
        0
 40
0.045
309
GRIDFORMAT_END
309
TABLEFORMAT_END
  1
CELLSTYLE_BEGIN
 90
        1
 91
        1
300
_TITLE
309
CELLSTYLE_END
300
CELLSTYLE
  1
TABLEFORMAT_BEGIN
 90
        5
170
     1
 91
        0
 92
        0
 62
   257
 93
        1
300
CONTENTFORMAT
  1
CONTENTFORMAT_BEGIN
 90
        0
 91
        0
 92
      512
 93
        0
300

 40
0.0
140
1.0
 94
        5
 62
     0
340
5D
144
0.18
309
CONTENTFORMAT_END
171
     1
301
MARGIN
  1
CELLMARGIN_BEGIN
 40
0.06
 40
0.06
 40
0.06
 40
0.06
 40
0.18
 40
0.18
309
CELLMARGIN_END
 94
        6
 95
        1
302
GRIDFORMAT
  1
GRIDFORMAT_BEGIN
 90
        0
 91
        1
 62
     0
 92
       -2
340
0
 93
        0
 40
0.045
309
GRIDFORMAT_END
 95
        2
302
GRIDFORMAT
  1
GRIDFORMAT_BEGIN
 90
        0
 91
        1
 62
     0
 92
       -2
340
0
 93
        0
 40
0.045
309
GRIDFORMAT_END
 95
        4
302
GRIDFORMAT
  1
GRIDFORMAT_BEGIN
 90
        0
 91
        1
 62
     0
 92
       -2
340
0
 93
        0
 40
0.045
309
GRIDFORMAT_END
 95
        8
302
GRIDFORMAT
  1
GRIDFORMAT_BEGIN
 90
        0
 91
        1
 62
     0
 92
       -2
340
0
 93
        0
 40
0.045
309
GRIDFORMAT_END
 95
       16
302
GRIDFORMAT
  1
GRIDFORMAT_BEGIN
 90
        0
 91
        1
 62
     0
 92
       -2
340
0
 93
        0
 40
0.045
309
GRIDFORMAT_END
 95
       32
302
GRIDFORMAT
  1
GRIDFORMAT_BEGIN
 90
        0
 91
        1
 62
     0
 92
       -2
340
0
 93
        0
 40
0.045
309
GRIDFORMAT_END
309
TABLEFORMAT_END
  1
CELLSTYLE_BEGIN
 90
        2
 91
        1
300
_HEADER
309
CELLSTYLE_END
300
CELLSTYLE
  1
TABLEFORMAT_BEGIN
 90
        5
170
     1
 91
        0
 92
        0
 62
   257
 93
        1
300
CONTENTFORMAT
  1
CONTENTFORMAT_BEGIN
 90
        0
 91
        0
 92
      512
 93
        0
300

 40
0.0
140
1.0
 94
        2
 62
     0
340
5D
144
0.18
309
CONTENTFORMAT_END
171
     1
301
MARGIN
  1
CELLMARGIN_BEGIN
 40
0.06
 40
0.06
 40
0.06
 40
0.06
 40
0.18
 40
0.18
309
CELLMARGIN_END
 94
        6
 95
        1
302
GRIDFORMAT
  1
GRIDFORMAT_BEGIN
 90
        0
 91
        1
 62
     0
 92
       -2
340
0
 93
        0
 40
0.045
309
GRIDFORMAT_END
 95
        2
302
GRIDFORMAT
  1
GRIDFORMAT_BEGIN
 90
        0
 91
        1
 62
     0
 92
       -2
340
0
 93
        0
 40
0.045
309
GRIDFORMAT_END
 95
        4
302
GRIDFORMAT
  1
GRIDFORMAT_BEGIN
 90
        0
 91
        1
 62
     0
 92
       -2
340
0
 93
        0
 40
0.045
309
GRIDFORMAT_END
 95
        8
302
GRIDFORMAT
  1
GRIDFORMAT_BEGIN
 90
        0
 91
        1
 62
     0
 92
       -2
340
0
 93
        0
 40
0.045
309
GRIDFORMAT_END
 95
       16
302
GRIDFORMAT
  1
GRIDFORMAT_BEGIN
 90
        0
 91
        1
 62
     0
 92
       -2
340
0
 93
        0
 40
0.045
309
GRIDFORMAT_END
 95
       32
302
GRIDFORMAT
  1
GRIDFORMAT_BEGIN
 90
        0
 91
        1
 62
     0
 92
       -2
340
0
 93
        0
 40
0.045
309
GRIDFORMAT_END
309
TABLEFORMAT_END
  1
CELLSTYLE_BEGIN
 90
        3
 91
        2
300
_DATA
309
CELLSTYLE_END
  0
ENDSEC
  0
EOF
